  0
SECTION
  2
HEADER
  9
$ACADVER
  1
AC1014
  9
$ACADMAINTVER
 70
     5
  9
$DWGCODEPAGE
  3
ANSI_1252
  9
$INSBASE
 10
780.9
 20
1854.128827
 30
0.0
  9
$EXTMIN
 10
251.951755
 20
1270.117317
 30
-0.000032
  9
$EXTMAX
 10
1309.837542
 20
1854.183477
 30
0.0
  9
$LIMMIN
 10
0.0
 20
0.0
  9
$LIMMAX
 10
3360.0
 20
2376.0
  9
$ORTHOMODE
 70
     1
  9
$REGENMODE
 70
     1
  9
$FILLMODE
 70
     1
  9
$QTEXTMODE
 70
     0
  9
$MIRRTEXT
 70
     0
  9
$DRAGMODE
 70
     2
  9
$LTSCALE
 40
1.0
  9
$OSMODE
 70
     0
  9
$ATTMODE
 70
     1
  9
$TEXTSIZE
 40
3.5
  9
$TRACEWID
 40
0.05
  9
$TEXTSTYLE
  7
ROMANS
  9
$CLAYER
  8
035-DWG
  9
$CELTYPE
  6
BYLAYER
  9
$CECOLOR
 62
   256
  9
$CELTSCALE
 40
1.0
  9
$DELOBJ
 70
     1
  9
$DISPSILH
 70
     0
  9
$DIMSCALE
 40
8.0
  9
$DIMASZ
 40
2.5
  9
$DIMEXO
 40
1.5
  9
$DIMDLI
 40
5.0
  9
$DIMRND
 40
0.0
  9
$DIMDLE
 40
0.0
  9
$DIMEXE
 40
1.0
  9
$DIMTP
 40
0.0
  9
$DIMTM
 40
0.0
  9
$DIMTXT
 40
3.0
  9
$DIMCEN
 40
-2.0
  9
$DIMTSZ
 40
0.0
  9
$DIMTOL
 70
     0
  9
$DIMLIM
 70
     0
  9
$DIMTIH
 70
     0
  9
$DIMTOH
 70
     0
  9
$DIMSE1
 70
     0
  9
$DIMSE2
 70
     0
  9
$DIMTAD
 70
     1
  9
$DIMZIN
 70
     8
  9
$DIMBLK
  1

  9
$DIMASO
 70
     1
  9
$DIMSHO
 70
     1
  9
$DIMPOST
  1

  9
$DIMAPOST
  1

  9
$DIMALT
 70
     0
  9
$DIMALTD
 70
     2
  9
$DIMALTF
 40
25.4
  9
$DIMLFAC
 40
1.0
  9
$DIMTOFL
 70
     1
  9
$DIMTVP
 40
0.0
  9
$DIMTIX
 70
     0
  9
$DIMSOXD
 70
     0
  9
$DIMSAH
 70
     0
  9
$DIMBLK1
  1

  9
$DIMBLK2
  1

  9
$DIMSTYLE
  2
STANDAARD
  9
$DIMCLRD
 70
   256
  9
$DIMCLRE
 70
   256
  9
$DIMCLRT
 70
   256
  9
$DIMTFAC
 40
0.75
  9
$DIMGAP
 40
1.5
  9
$DIMJUST
 70
     0
  9
$DIMSD1
 70
     0
  9
$DIMSD2
 70
     0
  9
$DIMTOLJ
 70
     1
  9
$DIMTZIN
 70
     8
  9
$DIMALTZ
 70
     8
  9
$DIMALTTZ
 70
     8
  9
$DIMFIT
 70
     3
  9
$DIMUPT
 70
     0
  9
$DIMUNIT
 70
     2
  9
$DIMDEC
 70
     0
  9
$DIMTDEC
 70
     1
  9
$DIMALTU
 70
     2
  9
$DIMALTTD
 70
     2
  9
$DIMTXSTY
  7
ROMANS
  9
$DIMAUNIT
 70
     0
  9
$LUNITS
 70
     2
  9
$LUPREC
 70
     4
  9
$SKETCHINC
 40
0.1
  9
$FILLETRAD
 40
6.0
  9
$AUNITS
 70
     0
  9
$AUPREC
 70
     4
  9
$MENU
  1
wtb2
  9
$ELEVATION
 40
0.0
  9
$PELEVATION
 40
0.0
  9
$THICKNESS
 40
0.0
  9
$LIMCHECK
 70
     0
  9
$BLIPMODE
 70
     0
  9
$CHAMFERA
 40
0.0
  9
$CHAMFERB
 40
0.0
  9
$CHAMFERC
 40
0.0
  9
$CHAMFERD
 40
0.0
  9
$SKPOLY
 70
     0
  9
$TDCREATE
 40
2451578.409790035
  9
$TDUPDATE
 40
2452573.368624016
  9
$TDINDWG
 40
3.0944086343
  9
$TDUSRTIMER
 40
3.0944086343
  9
$USRTIMER
 70
     1
  9
$ANGBASE
 50
0.0
  9
$ANGDIR
 70
     0
  9
$PDMODE
 70
     3
  9
$PDSIZE
 40
0.0
  9
$PLINEWID
 40
0.0
  9
$COORDS
 70
     2
  9
$SPLFRAME
 70
     0
  9
$SPLINETYPE
 70
     6
  9
$SPLINESEGS
 70
     8
  9
$ATTDIA
 70
     0
  9
$ATTREQ
 70
     1
  9
$HANDLING
 70
     1
  9
$HANDSEED
  5
31F
  9
$SURFTAB1
 70
     6
  9
$SURFTAB2
 70
     6
  9
$SURFTYPE
 70
     6
  9
$SURFU
 70
     6
  9
$SURFV
 70
     6
  9
$UCSNAME
  2

  9
$UCSORG
 10
0.0
 20
0.0
 30
0.0
  9
$UCSXDIR
 10
1.0
 20
0.0
 30
0.0
  9
$UCSYDIR
 10
0.0
 20
1.0
 30
0.0
  9
$PUCSNAME
  2

  9
$PUCSORG
 10
0.0
 20
0.0
 30
0.0
  9
$PUCSXDIR
 10
1.0
 20
0.0
 30
0.0
  9
$PUCSYDIR
 10
0.0
 20
1.0
 30
0.0
  9
$USERI1
 70
     0
  9
$USERI2
 70
     0
  9
$USERI3
 70
     0
  9
$USERI4
 70
     0
  9
$USERI5
 70
     0
  9
$USERR1
 40
0.0
  9
$USERR2
 40
0.0
  9
$USERR3
 40
0.0
  9
$USERR4
 40
0.0
  9
$USERR5
 40
0.0
  9
$WORLDVIEW
 70
     1
  9
$SHADEDGE
 70
     3
  9
$SHADEDIF
 70
    70
  9
$TILEMODE
 70
     1
  9
$MAXACTVP
 70
    16
  9
$PINSBASE
 10
0.0
 20
0.0
 30
0.0
  9
$PLIMCHECK
 70
     0
  9
$PEXTMIN
 10
1.000000E+20
 20
1.000000E+20
 30
1.000000E+20
  9
$PEXTMAX
 10
-1.000000E+20
 20
-1.000000E+20
 30
-1.000000E+20
  9
$PLIMMIN
 10
0.0
 20
0.0
  9
$PLIMMAX
 10
12.0
 20
9.0
  9
$UNITMODE
 70
     0
  9
$VISRETAIN
 70
     0
  9
$PLINEGEN
 70
     0
  9
$PSLTSCALE
 70
     0
  9
$TREEDEPTH
 70
  3020
  9
$PICKSTYLE
 70
     1
  9
$CMLSTYLE
  2
STANDARD
  9
$CMLJUST
 70
     0
  9
$CMLSCALE
 40
1.0
  9
$PROXYGRAPHICS
 70
     1
  9
$MEASUREMENT
 70
     0
  0
ENDSEC
  0
SECTION
  2
CLASSES
  0
CLASS
  1
LWPOLYLINE
  2
AcDbPolyline
  3
"AutoCAD"
 90
        0
280
     0
281
     1
  0
CLASS
  1
HATCH
  2
AcDbHatch
  3
"ACAD_SEDONA"
 90
        0
280
     0
281
     1
  0
CLASS
  1
ACMDATUMID
  2
AcmDatumId
  3
AutoCadMServices
 90
      255
280
     1
281
     1
  0
CLASS
  1
ACMFCFRAME
  2
AcmFCF
  3
AutoCadMServices
 90
      255
280
     1
281
     1
  0
CLASS
  1
AMLOADER
  2
AMLoader
  3
AMAcad
 90
        0
280
     0
281
     0
  0
ENDSEC
  0
SECTION
  2
TABLES
  0
TABLE
  2
VPORT
  5
12
100
AcDbSymbolTable
 70
     2
  0
VPORT
  5
31E
100
AcDbSymbolTableRecord
100
AcDbViewportTableRecord
  2
*ACTIVE
 70
     0
 10
0.0
 20
0.0
 11
1.0
 21
1.0
 12
780.894648
 22
1562.150397
 13
0.0
 23
0.0
 14
20.0
 24
20.0
 15
40.0
 25
40.0
 16
0.0
 26
0.0
 36
1.0
 17
0.0
 27
0.0
 37
0.0
 40
645.369025
 41
1.650376
 42
50.0
 43
0.0
 44
0.0
 50
0.0
 51
0.0
 71
     0
 72
 20000
 73
     1
 74
     0
 75
     0
 76
     0
 77
     0
 78
     1
  0
ENDTAB
  0
TABLE
  2
LTYPE
  5
D
100
AcDbSymbolTable
 70
     1
  0
LTYPE
  5
E
100
AcDbSymbolTableRecord
100
AcDbLinetypeTableRecord
  2
BYBLOCK
 70
     0
  3

 72
    65
 73
     0
 40
0.0
  0
LTYPE
  5
F
100
AcDbSymbolTableRecord
100
AcDbLinetypeTableRecord
  2
BYLAYER
 70
     0
  3

 72
    65
 73
     0
 40
0.0
  0
LTYPE
  5
5
100
AcDbSymbolTableRecord
100
AcDbLinetypeTableRecord
  2
CONTINUOUS
 70
     0
  3
Solid line
 72
    65
 73
     0
 40
0.0
  0
ENDTAB
  0
TABLE
  2
LAYER
  5
A
100
AcDbSymbolTable
 70
     6
  0
LAYER
  5
4
100
AcDbSymbolTableRecord
100
AcDbLayerTableRecord
  2
0
 70
     0
 62
     8
  6
CONTINUOUS
  0
LAYER
  5
20
100
AcDbSymbolTableRecord
100
AcDbLayerTableRecord
  2
025-DWG
 70
     0
 62
     7
  6
CONTINUOUS
  0
LAYER
  5
1B
100
AcDbSymbolTableRecord
100
AcDbLayerTableRecord
  2
035-DWG
 70
     0
 62
     2
  6
CONTINUOUS
  0
LAYER
  5
29E
100
AcDbSymbolTableRecord
100
AcDbLayerTableRecord
  2
NZB
 70
     0
 62
     5
  6
CONTINUOUS
  0
LAYER
  5
2E
100
AcDbSymbolTableRecord
100
AcDbLayerTableRecord
  2
VHH-035
 70
     0
 62
     2
  6
CONTINUOUS
  0
LAYER
  5
25A
100
AcDbSymbolTableRecord
100
AcDbLayerTableRecord
  2
050-DWG
 70
     0
 62
     1
  6
CONTINUOUS
  0
ENDTAB
  0
TABLE
  2
STYLE
  5
B
100
AcDbSymbolTable
 70
     2
  0
STYLE
  5
C
100
AcDbSymbolTableRecord
100
AcDbTextStyleTableRecord
  2
STANDARD
 70
     0
 40
0.0
 41
1.0
 50
0.0
 71
     0
 42
15.0
  3
txt
  4

  0
STYLE
  5
1C
100
AcDbSymbolTableRecord
100
AcDbTextStyleTableRecord
  2
ROMANS
 70
     0
 40
0.0
 41
1.0
 50
0.0
 71
     0
 42
3.5
  3
romans
  4

  0
ENDTAB
  0
TABLE
  2
VIEW
  5
10
100
AcDbSymbolTable
 70
     0
  0
ENDTAB
  0
TABLE
  2
UCS
  5
11
100
AcDbSymbolTable
 70
     0
  0
ENDTAB
  0
TABLE
  2
APPID
  5
14
100
AcDbSymbolTable
 70
     1
  0
APPID
  5
15
100
AcDbSymbolTableRecord
100
AcDbRegAppTableRecord
  2
ACAD
 70
     0
  0
ENDTAB
  0
TABLE
  2
DIMSTYLE
  5
16
100
AcDbSymbolTable
 70
     1
  0
DIMSTYLE
105
1E
100
AcDbSymbolTableRecord
100
AcDbDimStyleTableRecord
  2
STANDAARD
 70
     0
  3

  4

  5

  6

  7

 40
8.0
 41
2.5
 42
1.5
 43
5.0
 44
1.0
 45
0.0
 46
0.0
 47
0.0
 48
0.0
140
3.0
141
-2.0
142
0.0
143
25.4
144
1.0
145
0.0
146
0.75
147
1.5
 71
     0
 72
     0
 73
     0
 74
     0
 75
     0
 76
     0
 77
     1
 78
     8
170
     0
171
     2
172
     1
173
     0
174
     0
175
     0
176
   256
177
   256
178
   256
270
     2
271
     0
272
     1
273
     2
274
     2
340
1C
275
     0
280
     0
281
     0
282
     0
283
     1
284
     8
285
     8
286
     8
287
     3
288
     0
  0
ENDTAB
  0
TABLE
  2
BLOCK_RECORD
  5
1
100
AcDbSymbolTable
 70
     0
  0
BLOCK_RECORD
  5
2
100
AcDbSymbolTableRecord
100
AcDbBlockTableRecord
  2
*MODEL_SPACE
  0
BLOCK_RECORD
  5
7
100
AcDbSymbolTableRecord
100
AcDbBlockTableRecord
  2
*PAPER_SPACE
  0
ENDTAB
  0
ENDSEC
  0
SECTION
  2
BLOCKS
  0
BLOCK
  5
3
100
AcDbEntity
  8
0
100
AcDbBlockBegin
  2
*MODEL_SPACE
 70
     0
 10
0.0
 20
0.0
 30
0.0
  3
*MODEL_SPACE
  1

  0
ENDBLK
  5
6
100
AcDbEntity
  8
0
100
AcDbBlockEnd
  0
BLOCK
  5
8
100
AcDbEntity
 67
     1
  8
0
100
AcDbBlockBegin
  2
*PAPER_SPACE
 70
     0
 10
0.0
 20
0.0
 30
0.0
  3
*PAPER_SPACE
  1

  0
ENDBLK
  5
9
100
AcDbEntity
 67
     1
  8
0
100
AcDbBlockEnd
  0
ENDSEC
  0
SECTION
  2
ENTITIES
  0
ARC
  5
1F
100
AcDbEntity
  8
025-DWG
100
AcDbCircle
 10
407.9
 20
1480.428827
 30
0.0
 40
98.75
100
AcDbArc
 50
185.22915
 51
174.77085
  0
CIRCLE
  5
21
100
AcDbEntity
  8
025-DWG
100
AcDbCircle
 10
407.9
 20
1480.428827
 30
0.0
 40
83.5
  0
ARC
  5
22
100
AcDbEntity
  8
025-DWG
100
AcDbCircle
 10
407.9
 20
1480.428827
 30
0.0
 40
103.55
100
AcDbArc
 50
184.986127
 51
175.013873
  0
ARC
  5
23
100
AcDbEntity
  8
035-DWG
100
AcDbCircle
 10
407.9
 20
1480.428827
 30
0.0
 40
106.55
100
AcDbArc
 50
184.845398
 51
175.154602
  0
ARC
  5
24
100
AcDbEntity
  8
035-DWG
100
AcDbCircle
 10
407.9
 20
1462.28999
 30
0.0
 40
112.0
100
AcDbArc
 50
175.319646
 51
270.0
  0
ARC
  5
25
100
AcDbEntity
  8
035-DWG
100
AcDbCircle
 10
407.9
 20
1462.28999
 30
0.0
 40
106.0
100
AcDbArc
 50
176.837948
 51
270.0
  0
CIRCLE
  5
26
100
AcDbEntity
  8
025-DWG
100
AcDbCircle
 10
407.9
 20
1480.428827
 30
0.0
 40
72.554607
  0
CIRCLE
  5
27
100
AcDbEntity
  8
035-DWG
100
AcDbCircle
 10
407.9
 20
1480.428827
 30
0.0
 40
76.554607
  0
LINE
  5
28
100
AcDbEntity
  8
035-DWG
100
AcDbLine
 10
319.536283
 20
1471.428827
 30
0.0
 11
253.004392
 21
1471.428827
 31
0.0
  0
LINE
  5
29
100
AcDbEntity
  8
035-DWG
100
AcDbLine
 10
319.536283
 20
1489.428827
 30
0.0
 11
253.004392
 21
1489.428827
 31
0.0
  0
ELLIPSE
  5
2A
100
AcDbEntity
  8
035-DWG
100
AcDbEllipse
 10
253.004392
 20
1480.428827
 30
0.0
 11
0.0
 21
9.0
 31
0.0
210
0.0
220
0.0
230
1.0
 40
0.098079
 41
0.0
 42
3.141592653589793
  0
ELLIPSE
  5
2B
100
AcDbEntity
  8
035-DWG
100
AcDbEllipse
 10
319.536283
 20
1480.428827
 30
0.0
 11
0.0
 21
9.0
 31
0.0
210
0.0
220
0.0
230
-1.0
 40
0.098079
 41
0.0
 42
3.141592653589793
  0
LINE
  5
2C
100
AcDbEntity
  8
035-DWG
100
AcDbLine
 10
311.180228
 20
1489.428827
 30
0.0
 11
311.180228
 21
1471.428827
 31
0.0
  0
LINE
  5
2D
100
AcDbEntity
  8
VHH-035
100
AcDbLine
 10
428.404739
 20
1358.292126
 30
0.0
 11
430.619415
 21
1376.329208
 31
0.0
  0
ARC
  5
2F
100
AcDbEntity
  8
035-DWG
100
AcDbCircle
 10
407.9
 20
1462.28999
 30
0.0
 40
106.0
100
AcDbArc
 50
270.0
 51
3.162052
  0
ARC
  5
30
100
AcDbEntity
  8
035-DWG
100
AcDbCircle
 10
407.9
 20
1462.28999
 30
0.0
 40
112.0
100
AcDbArc
 50
270.0
 51
4.960042
  0
LINE
  5
31
100
AcDbEntity
  8
VHH-035
100
AcDbLine
 10
387.395261
 20
1358.292126
 30
0.0
 11
385.180585
 21
1376.329208
 31
0.0
  0
LINE
  5
32
100
AcDbEntity
  8
VHH-035
100
AcDbLine
 10
428.504921
 20
1367.944497
 30
0.0
 11
429.505345
 21
1376.092297
 31
0.0
  0
LINE
  5
33
100
AcDbEntity
  8
VHH-035
100
AcDbLine
 10
387.295079
 20
1367.944497
 30
0.0
 11
386.294655
 21
1376.092297
 31
0.0
  0
LINE
  5
34
100
AcDbEntity
  8
VHH-035
100
AcDbLine
 10
422.9
 20
1279.145627
 30
0.0
 11
422.9
 21
1282.961026
 31
0.0
  0
ARC
  5
35
100
AcDbEntity
  8
VHH-035
100
AcDbCircle
 10
416.9
 20
1282.961026
 30
0.0
 40
6.0
100
AcDbArc
 50
298.273714
 51
25.988622
  0
ARC
  5
36
100
AcDbEntity
  8
VHH-035
100
AcDbCircle
 10
398.9
 20
1282.961026
 30
0.0
 40
6.0
100
AcDbArc
 50
154.011378
 51
241.726286
  0
LINE
  5
37
100
AcDbEntity
  8
VHH-035
100
AcDbLine
 10
392.9
 20
1279.145627
 30
0.0
 11
392.9
 21
1282.961026
 31
0.0
  0
ARC
  5
38
100
AcDbEntity
  8
VHH-035
100
AcDbCircle
 10
407.9
 20
1295.878827
 30
0.0
 40
25.0
100
AcDbArc
 50
241.726286
 51
270.0
  0
ARC
  5
39
100
AcDbEntity
  8
VHH-035
100
AcDbCircle
 10
407.9
 20
1299.694227
 30
0.0
 40
25.0
100
AcDbArc
 50
241.726286
 51
270.0
  0
ARC
  5
3A
100
AcDbEntity
  8
VHH-035
100
AcDbCircle
 10
398.9
 20
1279.145627
 30
0.0
 40
6.0
100
AcDbArc
 50
180.0
 51
241.726286
  0
ARC
  5
3B
100
AcDbEntity
  8
VHH-035
100
AcDbCircle
 10
407.9
 20
1299.694227
 30
0.0
 40
25.0
100
AcDbArc
 50
270.0
 51
298.273714
  0
ARC
  5
3C
100
AcDbEntity
  8
VHH-035
100
AcDbCircle
 10
407.9
 20
1295.878827
 30
0.0
 40
25.0
100
AcDbArc
 50
270.0
 51
298.273714
  0
ARC
  5
3D
100
AcDbEntity
  8
VHH-035
100
AcDbCircle
 10
416.9
 20
1279.145627
 30
0.0
 40
6.0
100
AcDbArc
 50
298.273714
 51
0.0
  0
LINE
  5
3E
100
AcDbEntity
  8
VHH-035
100
AcDbLine
 10
423.731154
 20
1320.228827
 30
0.0
 11
427.637424
 21
1352.04284
 31
0.0
  0
ARC
  5
3F
100
AcDbEntity
  8
VHH-035
100
AcDbCircle
 10
407.9
 20
1314.428827
 30
0.0
 40
14.916049
100
AcDbArc
 50
311.529823
 51
90.0
  0
ARC
  5
40
100
AcDbEntity
  8
VHH-035
100
AcDbCircle
 10
407.9
 20
1314.428827
 30
0.0
 40
16.0
100
AcDbArc
 50
308.549483
 51
90.0
  0
LINE
  5
41
100
AcDbEntity
  8
VHH-035
100
AcDbLine
 10
392.068846
 20
1320.228827
 30
0.0
 11
388.162576
 21
1352.04284
 31
0.0
  0
ARC
  5
42
100
AcDbEntity
  8
VHH-035
100
AcDbCircle
 10
407.9
 20
1314.428827
 30
0.0
 40
14.916049
100
AcDbArc
 50
90.0
 51
228.470177
  0
ARC
  5
43
100
AcDbEntity
  8
VHH-035
100
AcDbCircle
 10
407.9
 20
1314.428827
 30
0.0
 40
16.0
100
AcDbArc
 50
90.0
 51
231.450517
  0
LINE
  5
44
100
AcDbEntity
  8
VHH-035
100
AcDbLine
 10
407.9
 20
1323.928827
 30
0.0
 11
399.02588
 21
1323.928827
 31
0.0
  0
ARC
  5
45
100
AcDbEntity
  8
VHH-035
100
AcDbCircle
 10
399.96164
 20
1315.420006
 30
0.0
 40
5.0
100
AcDbArc
 50
156.505134
 51
172.882917
  0
POLYLINE
  5
46
100
AcDbEntity
  8
VHH-035
100
AcDb2dPolyline
 66
     1
 10
0.0
 20
0.0
 30
0.0
 70
   128
  0
VERTEX
  5
47
100
AcDbEntity
  8
VHH-035
100
AcDbVertex
100
AcDb2dVertex
 10
396.909106
 20
1315.408281
 30
0.0
 42
0.034471
 70
     2
 50
98.972631
  0
VERTEX
  5
48
100
AcDbEntity
  8
VHH-035
100
AcDbVertex
100
AcDb2dVertex
 10
396.305723
 20
1317.392015
 30
0.0
 42
0.311147
  0
VERTEX
  5
49
100
AcDbEntity
  8
VHH-035
100
AcDbVertex
100
AcDb2dVertex
 10
395.836595
 20
1317.715244
 30
0.0
 42
0.311147
  0
SEQEND
  5
4A
100
AcDbEntity
  8
VHH-035
  0
ARC
  5
4B
100
AcDbEntity
  8
VHH-035
100
AcDbCircle
 10
407.9
 20
1314.428827
 30
0.0
 40
13.0
100
AcDbArc
 50
133.04908
 51
220.756465
  0
ARC
  5
4C
100
AcDbEntity
  8
VHH-035
100
AcDbCircle
 10
407.9
 20
1314.428827
 30
0.0
 40
16.90794
100
AcDbArc
 50
159.564525
 51
233.466917
  0
ARC
  5
4D
100
AcDbEntity
  8
VHH-035
100
AcDbCircle
 10
353.057065
 20
1305.308852
 30
0.0
 40
45.0
100
AcDbArc
 50
334.011378
 51
12.969466
  0
LINE
  5
4E
100
AcDbEntity
  8
VHH-035
100
AcDbLine
 10
392.068846
 20
1320.228827
 30
0.0
 11
392.98826
 21
1320.228827
 31
0.0
  0
ARC
  5
4F
100
AcDbEntity
  8
VHH-035
100
AcDbCircle
 10
395.836595
 20
1317.213187
 30
0.0
 40
0.502056
100
AcDbArc
 50
20.866436
 51
156.505134
  0
ARC
  5
50
100
AcDbEntity
  8
VHH-035
100
AcDbCircle
 10
419.963405
 20
1317.213187
 30
0.0
 40
0.502056
100
AcDbArc
 50
23.494866
 51
159.133564
  0
LINE
  5
51
100
AcDbEntity
  8
VHH-035
100
AcDbLine
 10
423.731154
 20
1320.228827
 30
0.0
 11
422.81174
 21
1320.228827
 31
0.0
  0
ARC
  5
52
100
AcDbEntity
  8
VHH-035
100
AcDbCircle
 10
407.9
 20
1314.428827
 30
0.0
 40
13.0
100
AcDbArc
 50
319.243535
 51
46.95092
  0
POLYLINE
  5
53
100
AcDbEntity
  8
VHH-035
100
AcDb2dPolyline
 66
     1
 10
0.0
 20
0.0
 30
0.0
 70
   128
  0
VERTEX
  5
54
100
AcDbEntity
  8
VHH-035
100
AcDbVertex
100
AcDb2dVertex
 10
418.890894
 20
1315.408281
 30
0.0
 42
-0.034471
 70
     2
 50
81.027369
  0
VERTEX
  5
55
100
AcDbEntity
  8
VHH-035
100
AcDbVertex
100
AcDb2dVertex
 10
419.494277
 20
1317.392015
 30
0.0
 42
-0.311147
  0
VERTEX
  5
56
100
AcDbEntity
  8
VHH-035
100
AcDbVertex
100
AcDb2dVertex
 10
419.963405
 20
1317.715244
 30
0.0
 42
-0.311147
  0
SEQEND
  5
57
100
AcDbEntity
  8
VHH-035
  0
ARC
  5
58
100
AcDbEntity
  8
VHH-035
100
AcDbCircle
 10
415.83836
 20
1315.420006
 30
0.0
 40
5.0
100
AcDbArc
 50
7.117083
 51
23.494866
  0
LINE
  5
59
100
AcDbEntity
  8
VHH-035
100
AcDbLine
 10
407.9
 20
1323.928827
 30
0.0
 11
416.77412
 21
1323.928827
 31
0.0
  0
ARC
  5
5A
100
AcDbEntity
  8
VHH-035
100
AcDbCircle
 10
462.742935
 20
1305.308852
 30
0.0
 40
45.0
100
AcDbArc
 50
167.030534
 51
205.988622
  0
ARC
  5
5B
100
AcDbEntity
  8
VHH-035
100
AcDbCircle
 10
407.9
 20
1314.428827
 30
0.0
 40
16.90794
100
AcDbArc
 50
306.533083
 51
20.435475
  0
ARC
  5
5C
100
AcDbEntity
  8
VHH-035
100
AcDbCircle
 10
407.9
 20
1389.428827
 30
0.0
 40
30.0
100
AcDbArc
 50
227.445687
 51
256.749556
  0
ARC
  5
5D
100
AcDbEntity
  8
VHH-035
100
AcDbCircle
 10
388.287625
 20
1368.066366
 30
0.0
 40
1.0
100
AcDbArc
 50
187.0
 51
227.445687
  0
ARC
  5
5E
100
AcDbEntity
  8
VHH-035
100
AcDbCircle
 10
407.9
 20
1389.428827
 30
0.0
 40
30.0
100
AcDbArc
 50
283.250444
 51
312.554313
  0
ARC
  5
5F
100
AcDbEntity
  8
VHH-035
100
AcDbCircle
 10
414.822079
 20
1360.032827
 30
0.0
 40
0.2
100
AcDbArc
 50
103.250444
 51
147.581624
  0
ARC
  5
60
100
AcDbEntity
  8
VHH-035
100
AcDbCircle
 10
427.512375
 20
1368.066366
 30
0.0
 40
1.0
100
AcDbArc
 50
312.554313
 51
353.0
  0
ARC
  5
61
100
AcDbEntity
  8
VHH-035
100
AcDbCircle
 10
407.9
 20
1364.428827
 30
0.0
 40
8.0
100
AcDbArc
 50
270.0
 51
327.581624
  0
ARC
  5
62
100
AcDbEntity
  8
VHH-035
100
AcDbCircle
 10
407.9
 20
1364.428827
 30
0.0
 40
5.0
100
AcDbArc
 50
270.0
 51
90.0
  0
ARC
  5
63
100
AcDbEntity
  8
VHH-035
100
AcDbCircle
 10
407.9
 20
1364.428827
 30
0.0
 40
8.0
100
AcDbArc
 50
212.418376
 51
270.0
  0
ARC
  5
64
100
AcDbEntity
  8
VHH-035
100
AcDbCircle
 10
400.977921
 20
1360.032827
 30
0.0
 40
0.2
100
AcDbArc
 50
32.418376
 51
76.749556
  0
ARC
  5
65
100
AcDbEntity
  8
VHH-035
100
AcDbCircle
 10
407.9
 20
1364.428827
 30
0.0
 40
5.0
100
AcDbArc
 50
90.0
 51
270.0
  0
CIRCLE
  5
66
100
AcDbEntity
  8
035-DWG
100
AcDbCircle
 10
407.9
 20
1480.428827
 30
0.0
 40
26.397274
  0
CIRCLE
  5
67
100
AcDbEntity
  8
035-DWG
100
AcDbCircle
 10
407.9
 20
1480.428827
 30
0.0
 40
23.0
  0
LINE
  5
68
100
AcDbEntity
  8
VHH-035
100
AcDbLine
 10
384.8
 20
1379.428827
 30
0.0
 11
384.8
 21
1379.428827
 31
0.0
  0
LINE
  5
69
100
AcDbEntity
  8
VHH-035
100
AcDbLine
 10
431.0
 20
1379.428827
 30
0.0
 11
431.0
 21
1379.428827
 31
0.0
  0
LINE
  5
6A
100
AcDbEntity
  8
035-DWG
100
AcDbLine
 10
514.411805
 20
1483.281513
 30
0.0
 11
516.4
 21
1483.281513
 31
0.0
  0
LINE
  5
6B
100
AcDbEntity
  8
035-DWG
100
AcDbLine
 10
514.403153
 20
1477.269555
 30
0.0
 11
516.4
 21
1477.269555
 31
0.0
  0
LINE
  5
6C
100
AcDbEntity
  8
035-DWG
100
AcDbLine
 10
516.4
 20
1475.448399
 30
0.0
 11
516.4
 21
1483.281513
 31
0.0
  0
ARC
  5
6D
100
AcDbEntity
  8
035-DWG
100
AcDbCircle
 10
519.9
 20
1475.448399
 30
0.0
 40
3.5
100
AcDbArc
 50
180.0
 51
263.117571
  0
ARC
  5
6E
100
AcDbEntity
  8
035-DWG
100
AcDbCircle
 10
1153.9
 20
1480.428827
 30
0.0
 40
11.0
100
AcDbArc
 50
239.04754
 51
59.04754
  0
ARC
  5
6F
100
AcDbEntity
  8
035-DWG
100
AcDbCircle
 10
1153.9
 20
1480.428827
 30
0.0
 40
106.55
100
AcDbArc
 50
154.973194
 51
355.154602
  0
ARC
  5
70
100
AcDbEntity
  8
025-DWG
100
AcDbCircle
 10
1153.9
 20
1480.428827
 30
0.0
 40
103.55
100
AcDbArc
 50
155.145511
 51
355.013873
  0
ARC
  5
71
100
AcDbEntity
  8
025-DWG
100
AcDbCircle
 10
1153.9
 20
1480.428827
 30
0.0
 40
98.75
100
AcDbArc
 50
155.443127
 51
354.77085
  0
LINE
  5
72
100
AcDbEntity
  8
035-DWG
100
AcDbLine
 10
827.771137
 20
1688.845289
 30
0.0
 11
1159.557594
 21
1489.862365
 31
0.0
  0
ARC
  5
73
100
AcDbEntity
  8
VHH-035
100
AcDbCircle
 10
1153.9
 20
1364.428827
 30
0.0
 40
5.0
100
AcDbArc
 50
270.0
 51
90.0
  0
ARC
  5
74
100
AcDbEntity
  8
VHH-035
100
AcDbCircle
 10
1153.9
 20
1364.428827
 30
0.0
 40
8.0
100
AcDbArc
 50
270.0
 51
327.581624
  0
LINE
  5
75
100
AcDbEntity
  8
VHH-035
100
AcDbLine
 10
1153.9
 20
1323.928827
 30
0.0
 11
1162.77412
 21
1323.928827
 31
0.0
  0
ARC
  5
76
100
AcDbEntity
  8
VHH-035
100
AcDbCircle
 10
1153.9
 20
1314.428827
 30
0.0
 40
14.916049
100
AcDbArc
 50
311.529823
 51
90.0
  0
ARC
  5
77
100
AcDbEntity
  8
VHH-035
100
AcDbCircle
 10
1153.9
 20
1314.428827
 30
0.0
 40
16.0
100
AcDbArc
 50
308.549483
 51
90.0
  0
ARC
  5
78
100
AcDbEntity
  8
VHH-035
100
AcDbCircle
 10
1153.9
 20
1295.878827
 30
0.0
 40
25.0
100
AcDbArc
 50
270.0
 51
298.273714
  0
ARC
  5
79
100
AcDbEntity
  8
VHH-035
100
AcDbCircle
 10
1153.9
 20
1299.694227
 30
0.0
 40
25.0
100
AcDbArc
 50
270.0
 51
298.273714
  0
ARC
  5
7A
100
AcDbEntity
  8
035-DWG
100
AcDbCircle
 10
1153.9
 20
1462.28999
 30
0.0
 40
112.0
100
AcDbArc
 50
270.0
 51
4.680354
  0
ARC
  5
7B
100
AcDbEntity
  8
035-DWG
100
AcDbCircle
 10
1153.9
 20
1462.28999
 30
0.0
 40
106.0
100
AcDbArc
 50
270.0
 51
3.162052
  0
ARC
  5
7C
100
AcDbEntity
  8
025-DWG
100
AcDbCircle
 10
1153.9
 20
1480.428827
 30
0.0
 40
98.75
100
AcDbArc
 50
5.22915
 51
142.651952
  0
ARC
  5
7D
100
AcDbEntity
  8
025-DWG
100
AcDbCircle
 10
1153.9
 20
1480.428827
 30
0.0
 40
83.5
100
AcDbArc
 50
156.617491
 51
141.477588
  0
ARC
  5
7E
100
AcDbEntity
  8
025-DWG
100
AcDbCircle
 10
1153.9
 20
1480.428827
 30
0.0
 40
72.554607
100
AcDbArc
 50
157.767776
 51
140.327303
  0
ARC
  5
7F
100
AcDbEntity
  8
035-DWG
100
AcDbCircle
 10
1153.9
 20
1480.428827
 30
0.0
 40
76.554607
100
AcDbArc
 50
157.308867
 51
140.786212
  0
ARC
  5
80
100
AcDbEntity
  8
025-DWG
100
AcDbCircle
 10
1153.9
 20
1480.428827
 30
0.0
 40
103.55
100
AcDbArc
 50
4.986127
 51
142.949568
  0
ARC
  5
81
100
AcDbEntity
  8
035-DWG
100
AcDbCircle
 10
1153.9
 20
1480.428827
 30
0.0
 40
106.55
100
AcDbArc
 50
4.845398
 51
143.121885
  0
ARC
  5
82
100
AcDbEntity
  8
035-DWG
100
AcDbCircle
 10
1153.9
 20
1480.428827
 30
0.0
 40
26.397274
100
AcDbArc
 50
173.67457
 51
124.420509
  0
ARC
  5
83
100
AcDbEntity
  8
035-DWG
100
AcDbCircle
 10
1153.9
 20
1480.428827
 30
0.0
 40
23.0
100
AcDbArc
 50
177.619418
 51
120.475661
  0
LINE
  5
84
100
AcDbEntity
  8
035-DWG
100
AcDbLine
 10
816.455949
 20
1669.978213
 30
0.0
 11
1148.242406
 21
1470.99529
 31
0.0
  0
LINE
  5
85
100
AcDbEntity
  8
025-DWG
100
AcDbLine
 10
714.9
 20
1554.578827
 30
0.0
 11
714.9
 21
1563.682879
 31
0.0
  0
ARC
  5
86
100
AcDbEntity
  8
025-DWG
100
AcDbCircle
 10
695.9
 20
1563.578827
 30
0.0
 40
9.0
100
AcDbArc
 50
180.0
 51
270.0
  0
ARC
  5
87
100
AcDbEntity
  8
035-DWG
100
AcDbCircle
 10
695.9
 20
1563.578827
 30
0.0
 40
15.0
100
AcDbArc
 50
180.0
 51
270.0
  0
ARC
  5
88
100
AcDbEntity
  8
025-DWG
100
AcDbCircle
 10
865.9
 20
1563.578827
 30
0.0
 40
9.0
100
AcDbArc
 50
270.0
 51
0.0
  0
LINE
  5
89
100
AcDbEntity
  8
025-DWG
100
AcDbLine
 10
846.9
 20
1554.578827
 30
0.0
 11
846.9
 21
1563.682879
 31
0.0
  0
ARC
  5
8A
100
AcDbEntity
  8
035-DWG
100
AcDbCircle
 10
865.9
 20
1563.578827
 30
0.0
 40
15.0
100
AcDbArc
 50
270.0
 51
0.0
  0
LINE
  5
8B
100
AcDbEntity
  8
035-DWG
100
AcDbLine
 10
843.367887
 20
1563.902497
 30
0.0
 11
842.978029
 21
1549.014434
 31
0.0
  0
LINE
  5
8C
100
AcDbEntity
  8
025-DWG
100
AcDbLine
 10
840.970183
 20
1548.706019
 30
0.0
 11
841.368115
 21
1563.902497
 31
0.0
  0
LINE
  5
8D
100
AcDbEntity
  8
035-DWG
100
AcDbLine
 10
718.821971
 20
1549.014434
 30
0.0
 11
718.432113
 21
1563.902497
 31
0.0
  0
LINE
  5
8E
100
AcDbEntity
  8
025-DWG
100
AcDbLine
 10
720.431885
 20
1563.902497
 30
0.0
 11
720.829817
 21
1548.706019
 31
0.0
  0
LINE
  5
8F
100
AcDbEntity
  8
025-DWG
100
AcDbLine
 10
757.778684
 20
1541.465267
 30
0.0
 11
770.890115
 21
1540.817994
 31
0.0
  0
POLYLINE
  5
90
100
AcDbEntity
  8
035-DWG
100
AcDb2dPolyline
 66
     1
 10
0.0
 20
0.0
 30
0.0
 70
   128
  0
VERTEX
  5
91
100
AcDbEntity
  8
035-DWG
100
AcDbVertex
100
AcDb2dVertex
 10
841.070468
 20
1548.224906
 30
0.0
  0
VERTEX
  5
92
100
AcDbEntity
  8
035-DWG
100
AcDbVertex
100
AcDb2dVertex
 10
833.136233
 20
1546.711536
 30
0.0
  0
VERTEX
  5
93
100
AcDbEntity
  8
035-DWG
100
AcDbVertex
100
AcDb2dVertex
 10
825.164138
 20
1545.412319
 30
0.0
  0
VERTEX
  5
94
100
AcDbEntity
  8
035-DWG
100
AcDbVertex
100
AcDb2dVertex
 10
817.159949
 20
1544.328196
 30
0.0
  0
VERTEX
  5
95
100
AcDbEntity
  8
035-DWG
100
AcDbVertex
100
AcDb2dVertex
 10
809.129479
 20
1543.459954
 30
0.0
  0
VERTEX
  5
96
100
AcDbEntity
  8
035-DWG
100
AcDbVertex
100
AcDb2dVertex
 10
801.078543
 20
1542.80822
 30
0.0
  0
VERTEX
  5
97
100
AcDbEntity
  8
035-DWG
100
AcDbVertex
100
AcDb2dVertex
 10
793.01298
 20
1542.373467
 30
0.0
  0
VERTEX
  5
98
100
AcDbEntity
  8
035-DWG
100
AcDbVertex
100
AcDb2dVertex
 10
784.938636
 20
1542.156013
 30
0.0
  0
VERTEX
  5
99
100
AcDbEntity
  8
035-DWG
100
AcDbVertex
100
AcDb2dVertex
 10
776.861364
 20
1542.156013
 30
0.0
  0
VERTEX
  5
9A
100
AcDbEntity
  8
035-DWG
100
AcDbVertex
100
AcDb2dVertex
 10
768.78702
 20
1542.373467
 30
0.0
  0
VERTEX
  5
9B
100
AcDbEntity
  8
035-DWG
100
AcDbVertex
100
AcDb2dVertex
 10
760.721457
 20
1542.80822
 30
0.0
  0
VERTEX
  5
9C
100
AcDbEntity
  8
035-DWG
100
AcDbVertex
100
AcDb2dVertex
 10
752.670521
 20
1543.459954
 30
0.0
  0
VERTEX
  5
9D
100
AcDbEntity
  8
035-DWG
100
AcDbVertex
100
AcDb2dVertex
 10
744.640051
 20
1544.328196
 30
0.0
  0
VERTEX
  5
9E
100
AcDbEntity
  8
035-DWG
100
AcDbVertex
100
AcDb2dVertex
 10
736.635862
 20
1545.412319
 30
0.0
  0
VERTEX
  5
9F
100
AcDbEntity
  8
035-DWG
100
AcDbVertex
100
AcDb2dVertex
 10
728.663767
 20
1546.711536
 30
0.0
  0
VERTEX
  5
A0
100
AcDbEntity
  8
035-DWG
100
AcDbVertex
100
AcDb2dVertex
 10
720.729532
 20
1548.224906
 30
0.0
  0
SEQEND
  5
A1
100
AcDbEntity
  8
035-DWG
  0
POLYLINE
  5
A2
100
AcDbEntity
  8
025-DWG
100
AcDb2dPolyline
 66
     1
 10
0.0
 20
0.0
 30
0.0
 70
   128
  0
VERTEX
  5
A3
100
AcDbEntity
  8
025-DWG
100
AcDbVertex
100
AcDb2dVertex
 10
728.237363
 20
1546.764223
 30
0.0
  0
VERTEX
  5
A4
100
AcDbEntity
  8
025-DWG
100
AcDbVertex
100
AcDb2dVertex
 10
728.344707
 20
1546.722127
 30
0.0
  0
VERTEX
  5
A5
100
AcDbEntity
  8
025-DWG
100
AcDbVertex
100
AcDb2dVertex
 10
728.548358
 20
1546.582157
 30
0.0
  0
VERTEX
  5
A6
100
AcDbEntity
  8
025-DWG
100
AcDbVertex
100
AcDb2dVertex
 10
728.678605
 20
1546.42777
 30
0.0
  0
SEQEND
  5
A7
100
AcDbEntity
  8
025-DWG
  0
ARC
  5
A8
100
AcDbEntity
  8
035-DWG
100
AcDbCircle
 10
714.9
 20
1554.578827
 30
0.0
 40
6.0
100
AcDbArc
 50
270.0
 51
310.488277
  0
LINE
  5
A9
100
AcDbEntity
  8
025-DWG
100
AcDbLine
 10
714.9
 20
1554.578827
 30
0.0
 11
714.9
 21
1548.578827
 31
0.0
  0
LINE
  5
AA
100
AcDbEntity
  8
025-DWG
100
AcDbLine
 10
714.9
 20
1554.578827
 30
0.0
 11
718.676262
 21
1554.578827
 31
0.0
  0
LINE
  5
AB
100
AcDbEntity
  8
035-DWG
100
AcDbLine
 10
714.9
 20
1548.578827
 30
0.0
 11
695.9
 21
1548.578827
 31
0.0
  0
LINE
  5
AC
100
AcDbEntity
  8
025-DWG
100
AcDbLine
 10
695.9
 20
1554.578827
 30
0.0
 11
714.9
 21
1554.578827
 31
0.0
  0
LINE
  5
AD
100
AcDbEntity
  8
025-DWG
100
AcDbLine
 10
695.9
 20
1548.578827
 30
0.0
 11
695.9
 21
1554.578827
 31
0.0
  0
LINE
  5
AE
100
AcDbEntity
  8
035-DWG
100
AcDbLine
 10
724.03236
 20
1547.568016
 30
0.0
 11
724.032326
 21
1547.568023
 31
0.0
  0
ARC
  5
AF
100
AcDbEntity
  8
035-DWG
100
AcDbCircle
 10
719.321799
 20
1549.027522
 30
0.0
 40
0.5
100
AcDbArc
 50
181.5
 51
258.13518
  0
POLYLINE
  5
B0
100
AcDbEntity
  8
035-DWG
100
AcDb2dPolyline
 66
     1
 10
0.0
 20
0.0
 30
0.0
 70
   128
  0
VERTEX
  5
B1
100
AcDbEntity
  8
035-DWG
100
AcDbVertex
100
AcDb2dVertex
 10
720.729532
 20
1548.224906
 30
0.0
  0
VERTEX
  5
B2
100
AcDbEntity
  8
035-DWG
100
AcDbVertex
100
AcDb2dVertex
 10
720.219324
 20
1548.329823
 30
0.0
  0
VERTEX
  5
B3
100
AcDbEntity
  8
035-DWG
100
AcDbVertex
100
AcDb2dVertex
 10
719.766183
 20
1548.423778
 30
0.0
  0
VERTEX
  5
B4
100
AcDbEntity
  8
035-DWG
100
AcDbVertex
100
AcDb2dVertex
 10
719.429462
 20
1548.494067
 30
0.0
  0
VERTEX
  5
B5
100
AcDbEntity
  8
035-DWG
100
AcDbVertex
100
AcDb2dVertex
 10
719.248021
 20
1548.532108
 30
0.0
  0
VERTEX
  5
B6
100
AcDbEntity
  8
035-DWG
100
AcDbVertex
100
AcDb2dVertex
 10
719.218998
 20
1548.538204
 30
0.0
  0
SEQEND
  5
B7
100
AcDbEntity
  8
035-DWG
  0
POLYLINE
  5
B8
100
AcDbEntity
  8
035-DWG
100
AcDb2dPolyline
 66
     1
 10
0.0
 20
0.0
 30
0.0
 70
   128
  0
VERTEX
  5
B9
100
AcDbEntity
  8
035-DWG
100
AcDbVertex
100
AcDb2dVertex
 10
720.829817
 20
1548.706019
 30
0.0
  0
VERTEX
  5
BA
100
AcDbEntity
  8
035-DWG
100
AcDbVertex
100
AcDb2dVertex
 10
720.81046
 20
1548.611663
 30
0.0
  0
VERTEX
  5
BB
100
AcDbEntity
  8
035-DWG
100
AcDbVertex
100
AcDb2dVertex
 10
720.79183
 20
1548.521182
 30
0.0
  0
VERTEX
  5
BC
100
AcDbEntity
  8
035-DWG
100
AcDbVertex
100
AcDb2dVertex
 10
720.77463
 20
1548.437979
 30
0.0
  0
VERTEX
  5
BD
100
AcDbEntity
  8
035-DWG
100
AcDbVertex
100
AcDb2dVertex
 10
720.759506
 20
1548.365181
 30
0.0
  0
VERTEX
  5
BE
100
AcDbEntity
  8
035-DWG
100
AcDbVertex
100
AcDb2dVertex
 10
720.747022
 20
1548.30553
 30
0.0
  0
VERTEX
  5
BF
100
AcDbEntity
  8
035-DWG
100
AcDbVertex
100
AcDb2dVertex
 10
720.737653
 20
1548.261262
 30
0.0
  0
VERTEX
  5
C0
100
AcDbEntity
  8
035-DWG
100
AcDbVertex
100
AcDb2dVertex
 10
720.731749
 20
1548.234047
 30
0.0
  0
VERTEX
  5
C1
100
AcDbEntity
  8
035-DWG
100
AcDbVertex
100
AcDb2dVertex
 10
720.729532
 20
1548.224906
 30
0.0
  0
SEQEND
  5
C2
100
AcDbEntity
  8
035-DWG
  0
POLYLINE
  5
C3
100
AcDbEntity
  8
025-DWG
100
AcDb2dPolyline
 66
     1
 10
0.0
 20
0.0
 30
0.0
 70
   128
  0
VERTEX
  5
C4
100
AcDbEntity
  8
025-DWG
100
AcDbVertex
100
AcDb2dVertex
 10
755.807335
 20
1543.156184
 30
0.0
  0
VERTEX
  5
C5
100
AcDbEntity
  8
025-DWG
100
AcDbVertex
100
AcDb2dVertex
 10
755.843222
 20
1543.147007
 30
0.0
  0
VERTEX
  5
C6
100
AcDbEntity
  8
025-DWG
100
AcDbVertex
100
AcDb2dVertex
 10
756.119041
 20
1543.001536
 30
0.0
  0
VERTEX
  5
C7
100
AcDbEntity
  8
025-DWG
100
AcDbVertex
100
AcDb2dVertex
 10
756.267716
 20
1542.852376
 30
0.0
  0
SEQEND
  5
C8
100
AcDbEntity
  8
025-DWG
  0
ARC
  5
C9
100
AcDbEntity
  8
025-DWG
100
AcDbCircle
 10
764.8
 20
1550.573018
 30
0.0
 40
11.5
100
AcDbArc
 50
222.141737
 51
232.370777
  0
POLYLINE
  5
CA
100
AcDbEntity
  8
025-DWG
100
AcDb2dPolyline
 66
     1
 10
0.0
 20
0.0
 30
0.0
 70
   128
  0
VERTEX
  5
CB
100
AcDbEntity
  8
025-DWG
100
AcDbVertex
100
AcDb2dVertex
 10
745.024575
 20
1544.224463
 30
0.0
  0
VERTEX
  5
CC
100
AcDbEntity
  8
025-DWG
100
AcDbVertex
100
AcDb2dVertex
 10
745.107113
 20
1544.239037
 30
0.0
  0
VERTEX
  5
CD
100
AcDbEntity
  8
025-DWG
100
AcDbVertex
100
AcDb2dVertex
 10
745.19114
 20
1544.246813
 30
0.0
  0
VERTEX
  5
CE
100
AcDbEntity
  8
025-DWG
100
AcDbVertex
100
AcDb2dVertex
 10
745.277325
 20
1544.24756
 30
0.0
  0
VERTEX
  5
CF
100
AcDbEntity
  8
025-DWG
100
AcDbVertex
100
AcDb2dVertex
 10
745.36389
 20
1544.240955
 30
0.0
  0
SEQEND
  5
D0
100
AcDbEntity
  8
025-DWG
  0
POLYLINE
  5
D1
100
AcDbEntity
  8
025-DWG
100
AcDb2dPolyline
 66
     1
 10
0.0
 20
0.0
 30
0.0
 70
   128
  0
VERTEX
  5
D2
100
AcDbEntity
  8
025-DWG
100
AcDbVertex
100
AcDb2dVertex
 10
744.645695
 20
1544.054583
 30
0.0
  0
VERTEX
  5
D3
100
AcDbEntity
  8
025-DWG
100
AcDbVertex
100
AcDb2dVertex
 10
744.789521
 20
1544.141695
 30
0.0
  0
VERTEX
  5
D4
100
AcDbEntity
  8
025-DWG
100
AcDbVertex
100
AcDb2dVertex
 10
744.950435
 20
1544.20526
 30
0.0
  0
VERTEX
  5
D5
100
AcDbEntity
  8
025-DWG
100
AcDbVertex
100
AcDb2dVertex
 10
745.024575
 20
1544.224463
 30
0.0
  0
SEQEND
  5
D6
100
AcDbEntity
  8
025-DWG
  0
POLYLINE
  5
D7
100
AcDbEntity
  8
025-DWG
100
AcDb2dPolyline
 66
     1
 10
0.0
 20
0.0
 30
0.0
 70
   128
  0
VERTEX
  5
D8
100
AcDbEntity
  8
025-DWG
100
AcDbVertex
100
AcDb2dVertex
 10
745.364448
 20
1544.240888
 30
0.0
  0
VERTEX
  5
D9
100
AcDbEntity
  8
025-DWG
100
AcDbVertex
100
AcDb2dVertex
 10
745.195126
 20
1544.246912
 30
0.0
  0
VERTEX
  5
DA
100
AcDbEntity
  8
025-DWG
100
AcDbVertex
100
AcDb2dVertex
 10
745.022325
 20
1544.223765
 30
0.0
  0
VERTEX
  5
DB
100
AcDbEntity
  8
025-DWG
100
AcDbVertex
100
AcDb2dVertex
 10
744.903753
 20
1544.186819
 30
0.0
  0
SEQEND
  5
DC
100
AcDbEntity
  8
025-DWG
  0
ARC
  5
DD
100
AcDbEntity
  8
025-DWG
100
AcDbCircle
 10
737.9
 20
1553.312277
 30
0.0
 40
11.454663
100
AcDbArc
 50
297.928054
 51
306.079255
  0
ARC
  5
DE
100
AcDbEntity
  8
025-DWG
100
AcDbCircle
 10
737.9
 20
1553.312277
 30
0.0
 40
11.5
100
AcDbArc
 50
216.744243
 51
228.158668
  0
POLYLINE
  5
DF
100
AcDbEntity
  8
025-DWG
100
AcDb2dPolyline
 66
     1
 10
0.0
 20
0.0
 30
0.0
 70
   128
  0
VERTEX
  5
E0
100
AcDbEntity
  8
025-DWG
100
AcDbVertex
100
AcDb2dVertex
 10
730.236559
 20
1544.75324
 30
0.0
  0
VERTEX
  5
E1
100
AcDbEntity
  8
025-DWG
100
AcDbVertex
100
AcDb2dVertex
 10
730.225465
 20
1544.754695
 30
0.0
  0
VERTEX
  5
E2
100
AcDbEntity
  8
025-DWG
100
AcDbVertex
100
AcDb2dVertex
 10
730.375188
 20
1544.735124
 30
0.0
  0
VERTEX
  5
E3
100
AcDbEntity
  8
025-DWG
100
AcDbVertex
100
AcDb2dVertex
 10
730.702332
 20
1544.692539
 30
0.0
  0
VERTEX
  5
E4
100
AcDbEntity
  8
025-DWG
100
AcDbVertex
100
AcDb2dVertex
 10
731.200112
 20
1544.62813
 30
0.0
  0
VERTEX
  5
E5
100
AcDbEntity
  8
025-DWG
100
AcDbVertex
100
AcDb2dVertex
 10
731.851606
 20
1544.54455
 30
0.0
  0
VERTEX
  5
E6
100
AcDbEntity
  8
025-DWG
100
AcDbVertex
100
AcDb2dVertex
 10
732.645152
 20
1544.443816
 30
0.0
  0
VERTEX
  5
E7
100
AcDbEntity
  8
025-DWG
100
AcDbVertex
100
AcDb2dVertex
 10
733.552946
 20
1544.329947
 30
0.0
  0
VERTEX
  5
E8
100
AcDbEntity
  8
025-DWG
100
AcDbVertex
100
AcDb2dVertex
 10
734.558942
 20
1544.205446
 30
0.0
  0
VERTEX
  5
E9
100
AcDbEntity
  8
025-DWG
100
AcDbVertex
100
AcDb2dVertex
 10
735.626968
 20
1544.075077
 30
0.0
  0
VERTEX
  5
EA
100
AcDbEntity
  8
025-DWG
100
AcDbVertex
100
AcDb2dVertex
 10
736.734229
 20
1543.941861
 30
0.0
  0
VERTEX
  5
EB
100
AcDbEntity
  8
025-DWG
100
AcDbVertex
100
AcDb2dVertex
 10
737.842998
 20
1543.810308
 30
0.0
  0
VERTEX
  5
EC
100
AcDbEntity
  8
025-DWG
100
AcDbVertex
100
AcDb2dVertex
 10
738.923258
 20
1543.683888
 30
0.0
  0
VERTEX
  5
ED
100
AcDbEntity
  8
025-DWG
100
AcDbVertex
100
AcDb2dVertex
 10
739.942985
 20
1543.566039
 30
0.0
  0
VERTEX
  5
EE
100
AcDbEntity
  8
025-DWG
100
AcDbVertex
100
AcDb2dVertex
 10
740.8691
 20
1543.460242
 30
0.0
  0
VERTEX
  5
EF
100
AcDbEntity
  8
025-DWG
100
AcDbVertex
100
AcDb2dVertex
 10
741.679265
 20
1543.368608
 30
0.0
  0
VERTEX
  5
F0
100
AcDbEntity
  8
025-DWG
100
AcDbVertex
100
AcDb2dVertex
 10
742.34446
 20
1543.293998
 30
0.0
  0
VERTEX
  5
F1
100
AcDbEntity
  8
025-DWG
100
AcDbVertex
100
AcDb2dVertex
 10
742.852295
 20
1543.237412
 30
0.0
  0
VERTEX
  5
F2
100
AcDbEntity
  8
025-DWG
100
AcDbVertex
100
AcDb2dVertex
 10
743.264934
 20
1543.191666
 30
0.0
  0
SEQEND
  5
F3
100
AcDbEntity
  8
025-DWG
  0
POLYLINE
  5
F4
100
AcDbEntity
  8
025-DWG
100
AcDb2dPolyline
 66
     1
 10
0.0
 20
0.0
 30
0.0
 70
   128
  0
VERTEX
  5
F5
100
AcDbEntity
  8
025-DWG
100
AcDbVertex
100
AcDb2dVertex
 10
826.452719
 20
1545.32126
 30
0.0
  0
VERTEX
  5
F6
100
AcDbEntity
  8
025-DWG
100
AcDbVertex
100
AcDb2dVertex
 10
826.47053
 20
1545.350023
 30
0.0
  0
VERTEX
  5
F7
100
AcDbEntity
  8
025-DWG
100
AcDbVertex
100
AcDb2dVertex
 10
826.626255
 20
1545.503274
 30
0.0
  0
VERTEX
  5
F8
100
AcDbEntity
  8
025-DWG
100
AcDbVertex
100
AcDb2dVertex
 10
826.778056
 20
1545.602126
 30
0.0
  0
VERTEX
  5
F9
100
AcDbEntity
  8
025-DWG
100
AcDbVertex
100
AcDb2dVertex
 10
826.8955
 20
1545.653911
 30
0.0
  0
SEQEND
  5
FA
100
AcDbEntity
  8
025-DWG
  0
LINE
  5
FB
100
AcDbEntity
  8
025-DWG
100
AcDbLine
 10
793.796328
 20
1540.994179
 30
0.0
 11
806.908114
 21
1541.636764
 31
0.0
  0
LINE
  5
FC
100
AcDbEntity
  8
025-DWG
100
AcDbLine
 10
775.785841
 20
1540.686702
 30
0.0
 11
788.914159
 21
1540.686702
 31
0.0
  0
POLYLINE
  5
FD
100
AcDbEntity
  8
025-DWG
100
AcDb2dPolyline
 66
     1
 10
0.0
 20
0.0
 30
0.0
 70
   128
  0
VERTEX
  5
FE
100
AcDbEntity
  8
025-DWG
100
AcDbVertex
100
AcDb2dVertex
 10
790.488745
 20
1541.994426
 30
0.0
  0
VERTEX
  5
FF
100
AcDbEntity
  8
025-DWG
100
AcDbVertex
100
AcDb2dVertex
 10
790.560229
 20
1542.07124
 30
0.0
  0
VERTEX
  5
100
100
AcDbEntity
  8
025-DWG
100
AcDbVertex
100
AcDb2dVertex
 10
790.73215
 20
1542.187395
 30
0.0
  0
VERTEX
  5
101
100
AcDbEntity
  8
025-DWG
100
AcDbVertex
100
AcDb2dVertex
 10
790.888375
 20
1542.254396
 30
0.0
  0
VERTEX
  5
102
100
AcDbEntity
  8
025-DWG
100
AcDbVertex
100
AcDb2dVertex
 10
790.967771
 20
1542.275077
 30
0.0
  0
SEQEND
  5
103
100
AcDbEntity
  8
025-DWG
  0
ARC
  5
104
100
AcDbEntity
  8
025-DWG
100
AcDbCircle
 10
782.35
 20
1550.129256
 30
0.0
 40
11.5
100
AcDbArc
 50
304.805784
 51
315.01132
  0
POLYLINE
  5
105
100
AcDbEntity
  8
025-DWG
100
AcDb2dPolyline
 66
     1
 10
0.0
 20
0.0
 30
0.0
 70
   128
  0
VERTEX
  5
106
100
AcDbEntity
  8
025-DWG
100
AcDbVertex
100
AcDb2dVertex
 10
791.852996
 20
1542.304894
 30
0.0
  0
VERTEX
  5
107
100
AcDbEntity
  8
025-DWG
100
AcDbVertex
100
AcDb2dVertex
 10
791.887925
 20
1542.300338
 30
0.0
  0
VERTEX
  5
108
100
AcDbEntity
  8
025-DWG
100
AcDbVertex
100
AcDb2dVertex
 10
792.177007
 20
1542.190535
 30
0.0
  0
VERTEX
  5
109
100
AcDbEntity
  8
025-DWG
100
AcDbVertex
100
AcDb2dVertex
 10
792.347141
 20
1542.05757
 30
0.0
  0
SEQEND
  5
10A
100
AcDbEntity
  8
025-DWG
  0
ARC
  5
10B
100
AcDbEntity
  8
025-DWG
100
AcDbCircle
 10
799.89
 20
1550.746982
 30
0.0
 40
11.5
100
AcDbArc
 50
229.036441
 51
238.002347
  0
POLYLINE
  5
10C
100
AcDbEntity
  8
025-DWG
100
AcDb2dPolyline
 66
     1
 10
0.0
 20
0.0
 30
0.0
 70
   128
  0
VERTEX
  5
10D
100
AcDbEntity
  8
025-DWG
100
AcDbVertex
100
AcDb2dVertex
 10
773.816754
 20
1542.188978
 30
0.0
  0
VERTEX
  5
10E
100
AcDbEntity
  8
025-DWG
100
AcDbVertex
100
AcDb2dVertex
 10
773.844994
 20
1542.183664
 30
0.0
  0
VERTEX
  5
10F
100
AcDbEntity
  8
025-DWG
100
AcDbVertex
100
AcDb2dVertex
 10
774.1078
 20
1542.071173
 30
0.0
  0
VERTEX
  5
110
100
AcDbEntity
  8
025-DWG
100
AcDbVertex
100
AcDb2dVertex
 10
774.29738
 20
1541.913817
 30
0.0
  0
SEQEND
  5
111
100
AcDbEntity
  8
025-DWG
  0
ARC
  5
112
100
AcDbEntity
  8
025-DWG
100
AcDbCircle
 10
782.35
 20
1550.129256
 30
0.0
 40
11.5
100
AcDbArc
 50
225.560709
 51
235.194216
  0
POLYLINE
  5
113
100
AcDbEntity
  8
025-DWG
100
AcDb2dPolyline
 66
     1
 10
0.0
 20
0.0
 30
0.0
 70
   128
  0
VERTEX
  5
114
100
AcDbEntity
  8
025-DWG
100
AcDbVertex
100
AcDb2dVertex
 10
772.43006
 20
1541.96376
 30
0.0
  0
VERTEX
  5
115
100
AcDbEntity
  8
025-DWG
100
AcDbVertex
100
AcDb2dVertex
 10
772.454585
 20
1541.990865
 30
0.0
  0
VERTEX
  5
116
100
AcDbEntity
  8
025-DWG
100
AcDbVertex
100
AcDb2dVertex
 10
772.635284
 20
1542.113537
 30
0.0
  0
VERTEX
  5
117
100
AcDbEntity
  8
025-DWG
100
AcDbVertex
100
AcDb2dVertex
 10
772.802316
 20
1542.183436
 30
0.0
  0
VERTEX
  5
118
100
AcDbEntity
  8
025-DWG
100
AcDbVertex
100
AcDb2dVertex
 10
772.925425
 20
1542.212844
 30
0.0
  0
SEQEND
  5
119
100
AcDbEntity
  8
025-DWG
  0
ARC
  5
11A
100
AcDbEntity
  8
025-DWG
100
AcDbCircle
 10
764.8
 20
1550.573018
 30
0.0
 40
11.5
100
AcDbArc
 50
301.976761
 51
311.535837
  0
LINE
  5
11B
100
AcDbEntity
  8
025-DWG
100
AcDbLine
 10
811.046855
 20
1542.833259
 30
0.0
 11
808.234039
 21
1542.833259
 31
0.0
  0
LINE
  5
11C
100
AcDbEntity
  8
025-DWG
100
AcDbLine
 10
811.803283
 20
1542.372828
 30
0.0
 11
824.917572
 21
1543.71641
 31
0.0
  0
POLYLINE
  5
11D
100
AcDbEntity
  8
025-DWG
100
AcDb2dPolyline
 66
     1
 10
0.0
 20
0.0
 30
0.0
 70
   128
  0
VERTEX
  5
11E
100
AcDbEntity
  8
025-DWG
100
AcDbVertex
100
AcDb2dVertex
 10
808.498755
 20
1543.116741
 30
0.0
  0
VERTEX
  5
11F
100
AcDbEntity
  8
025-DWG
100
AcDbVertex
100
AcDb2dVertex
 10
808.518436
 20
1543.144625
 30
0.0
  0
VERTEX
  5
120
100
AcDbEntity
  8
025-DWG
100
AcDbVertex
100
AcDb2dVertex
 10
808.683109
 20
1543.28822
 30
0.0
  0
VERTEX
  5
121
100
AcDbEntity
  8
025-DWG
100
AcDbVertex
100
AcDb2dVertex
 10
808.840586
 20
1543.377753
 30
0.0
  0
VERTEX
  5
122
100
AcDbEntity
  8
025-DWG
100
AcDbVertex
100
AcDb2dVertex
 10
808.961513
 20
1543.422587
 30
0.0
  0
SEQEND
  5
123
100
AcDbEntity
  8
025-DWG
  0
POLYLINE
  5
124
100
AcDbEntity
  8
025-DWG
100
AcDb2dPolyline
 66
     1
 10
0.0
 20
0.0
 30
0.0
 70
   128
  0
VERTEX
  5
125
100
AcDbEntity
  8
025-DWG
100
AcDbVertex
100
AcDb2dVertex
 10
809.885614
 20
1543.508388
 30
0.0
  0
VERTEX
  5
126
100
AcDbEntity
  8
025-DWG
100
AcDbVertex
100
AcDb2dVertex
 10
809.921027
 20
1543.505926
 30
0.0
  0
VERTEX
  5
127
100
AcDbEntity
  8
025-DWG
100
AcDbVertex
100
AcDb2dVertex
 10
810.216194
 20
1543.413728
 30
0.0
  0
VERTEX
  5
128
100
AcDbEntity
  8
025-DWG
100
AcDbVertex
100
AcDb2dVertex
 10
810.394194
 20
1543.291131
 30
0.0
  0
SEQEND
  5
129
100
AcDbEntity
  8
025-DWG
  0
ARC
  5
12A
100
AcDbEntity
  8
025-DWG
100
AcDbCircle
 10
799.89
 20
1550.746982
 30
0.0
 40
11.5
100
AcDbArc
 50
307.609084
 51
318.436368
  0
ARC
  5
12B
100
AcDbEntity
  8
025-DWG
100
AcDbCircle
 10
817.4
 20
1552.419059
 30
0.0
 40
11.5
100
AcDbArc
 50
232.488629
 51
240.877984
  0
ARC
  5
12C
100
AcDbEntity
  8
025-DWG
100
AcDbCircle
 10
817.4
 20
1552.419059
 30
0.0
 40
11.5
100
AcDbArc
 50
310.821297
 51
321.894035
  0
LINE
  5
12D
100
AcDbEntity
  8
025-DWG
100
AcDbLine
 10
865.9
 20
1554.578827
 30
0.0
 11
846.9
 21
1554.578827
 31
0.0
  0
LINE
  5
12E
100
AcDbEntity
  8
035-DWG
100
AcDbLine
 10
846.9
 20
1548.578827
 30
0.0
 11
865.9
 21
1548.578827
 31
0.0
  0
LINE
  5
12F
100
AcDbEntity
  8
025-DWG
100
AcDbLine
 10
846.9
 20
1554.578827
 30
0.0
 11
843.123738
 21
1554.578827
 31
0.0
  0
ARC
  5
130
100
AcDbEntity
  8
035-DWG
100
AcDbCircle
 10
846.9
 20
1554.578827
 30
0.0
 40
6.0
100
AcDbArc
 50
229.511723
 51
270.0
  0
LINE
  5
131
100
AcDbEntity
  8
025-DWG
100
AcDbLine
 10
846.9
 20
1554.578827
 30
0.0
 11
846.9
 21
1548.578827
 31
0.0
  0
ARC
  5
132
100
AcDbEntity
  8
035-DWG
100
AcDbCircle
 10
842.478201
 20
1549.027522
 30
0.0
 40
0.5
100
AcDbArc
 50
281.86482
 51
358.5
  0
POLYLINE
  5
133
100
AcDbEntity
  8
035-DWG
100
AcDb2dPolyline
 66
     1
 10
0.0
 20
0.0
 30
0.0
 70
   128
  0
VERTEX
  5
134
100
AcDbEntity
  8
035-DWG
100
AcDbVertex
100
AcDb2dVertex
 10
842.581002
 20
1548.538204
 30
0.0
  0
VERTEX
  5
135
100
AcDbEntity
  8
035-DWG
100
AcDbVertex
100
AcDb2dVertex
 10
842.499851
 20
1548.521167
 30
0.0
  0
VERTEX
  5
136
100
AcDbEntity
  8
035-DWG
100
AcDbVertex
100
AcDb2dVertex
 10
842.266677
 20
1548.472343
 30
0.0
  0
VERTEX
  5
137
100
AcDbEntity
  8
035-DWG
100
AcDbVertex
100
AcDb2dVertex
 10
841.905525
 20
1548.397103
 30
0.0
  0
VERTEX
  5
138
100
AcDbEntity
  8
035-DWG
100
AcDbVertex
100
AcDb2dVertex
 10
841.446909
 20
1548.302226
 30
0.0
  0
VERTEX
  5
139
100
AcDbEntity
  8
035-DWG
100
AcDbVertex
100
AcDb2dVertex
 10
841.070468
 20
1548.224906
 30
0.0
  0
SEQEND
  5
13A
100
AcDbEntity
  8
035-DWG
  0
POLYLINE
  5
13B
100
AcDbEntity
  8
035-DWG
100
AcDb2dPolyline
 66
     1
 10
0.0
 20
0.0
 30
0.0
 70
   128
  0
VERTEX
  5
13C
100
AcDbEntity
  8
035-DWG
100
AcDbVertex
100
AcDb2dVertex
 10
840.970183
 20
1548.706019
 30
0.0
  0
VERTEX
  5
13D
100
AcDbEntity
  8
035-DWG
100
AcDbVertex
100
AcDb2dVertex
 10
840.98954
 20
1548.611663
 30
0.0
  0
VERTEX
  5
13E
100
AcDbEntity
  8
035-DWG
100
AcDbVertex
100
AcDb2dVertex
 10
841.00817
 20
1548.521182
 30
0.0
  0
VERTEX
  5
13F
100
AcDbEntity
  8
035-DWG
100
AcDbVertex
100
AcDb2dVertex
 10
841.02537
 20
1548.437979
 30
0.0
  0
VERTEX
  5
140
100
AcDbEntity
  8
035-DWG
100
AcDbVertex
100
AcDb2dVertex
 10
841.040494
 20
1548.365181
 30
0.0
  0
VERTEX
  5
141
100
AcDbEntity
  8
035-DWG
100
AcDbVertex
100
AcDb2dVertex
 10
841.052978
 20
1548.30553
 30
0.0
  0
VERTEX
  5
142
100
AcDbEntity
  8
035-DWG
100
AcDbVertex
100
AcDb2dVertex
 10
841.062347
 20
1548.261262
 30
0.0
  0
VERTEX
  5
143
100
AcDbEntity
  8
035-DWG
100
AcDbVertex
100
AcDb2dVertex
 10
841.068251
 20
1548.234047
 30
0.0
  0
VERTEX
  5
144
100
AcDbEntity
  8
035-DWG
100
AcDbVertex
100
AcDb2dVertex
 10
841.070468
 20
1548.224906
 30
0.0
  0
SEQEND
  5
145
100
AcDbEntity
  8
035-DWG
  0
LINE
  5
146
100
AcDbEntity
  8
025-DWG
100
AcDbLine
 10
829.489773
 20
1546.089921
 30
0.0
 11
829.489736
 21
1546.089916
 31
0.0
  0
LINE
  5
147
100
AcDbEntity
  8
025-DWG
100
AcDbLine
 10
865.9
 20
1548.578827
 30
0.0
 11
865.9
 21
1554.578827
 31
0.0
  0
LINE
  5
148
100
AcDbEntity
  8
VHH-035
100
AcDbLine
 10
1133.395261
 20
1358.292126
 30
0.0
 11
1131.180585
 21
1376.329208
 31
0.0
  0
LINE
  5
149
100
AcDbEntity
  8
VHH-035
100
AcDbLine
 10
1133.295079
 20
1367.944497
 30
0.0
 11
1132.294655
 21
1376.092297
 31
0.0
  0
ARC
  5
14A
100
AcDbEntity
  8
035-DWG
100
AcDbCircle
 10
1153.9
 20
1462.28999
 30
0.0
 40
106.0
100
AcDbArc
 50
176.837948
 51
270.0
  0
ARC
  5
14B
100
AcDbEntity
  8
035-DWG
100
AcDbCircle
 10
1153.9
 20
1462.28999
 30
0.0
 40
112.0
100
AcDbArc
 50
175.039958
 51
270.0
  0
LINE
  5
14C
100
AcDbEntity
  8
VHH-035
100
AcDbLine
 10
1138.9
 20
1279.145627
 30
0.0
 11
1138.9
 21
1282.961026
 31
0.0
  0
ARC
  5
14D
100
AcDbEntity
  8
VHH-035
100
AcDbCircle
 10
1144.9
 20
1282.961026
 30
0.0
 40
6.0
100
AcDbArc
 50
154.011378
 51
241.726286
  0
ARC
  5
14E
100
AcDbEntity
  8
VHH-035
100
AcDbCircle
 10
1153.9
 20
1295.878827
 30
0.0
 40
25.0
100
AcDbArc
 50
241.726286
 51
270.0
  0
ARC
  5
14F
100
AcDbEntity
  8
VHH-035
100
AcDbCircle
 10
1153.9
 20
1299.694227
 30
0.0
 40
25.0
100
AcDbArc
 50
241.726286
 51
270.0
  0
ARC
  5
150
100
AcDbEntity
  8
VHH-035
100
AcDbCircle
 10
1144.9
 20
1279.145627
 30
0.0
 40
6.0
100
AcDbArc
 50
180.0
 51
241.726286
  0
LINE
  5
151
100
AcDbEntity
  8
VHH-035
100
AcDbLine
 10
1138.068846
 20
1320.228827
 30
0.0
 11
1134.162576
 21
1352.04284
 31
0.0
  0
ARC
  5
152
100
AcDbEntity
  8
VHH-035
100
AcDbCircle
 10
1153.9
 20
1314.428827
 30
0.0
 40
14.916049
100
AcDbArc
 50
90.0
 51
228.470177
  0
ARC
  5
153
100
AcDbEntity
  8
VHH-035
100
AcDbCircle
 10
1153.9
 20
1314.428827
 30
0.0
 40
16.0
100
AcDbArc
 50
90.0
 51
231.450517
  0
ARC
  5
154
100
AcDbEntity
  8
VHH-035
100
AcDbCircle
 10
1153.9
 20
1314.428827
 30
0.0
 40
13.0
100
AcDbArc
 50
133.04908
 51
220.756465
  0
ARC
  5
155
100
AcDbEntity
  8
VHH-035
100
AcDbCircle
 10
1099.057065
 20
1305.308852
 30
0.0
 40
45.0
100
AcDbArc
 50
334.011378
 51
12.969466
  0
LINE
  5
156
100
AcDbEntity
  8
VHH-035
100
AcDbLine
 10
1153.9
 20
1323.928827
 30
0.0
 11
1145.02588
 21
1323.928827
 31
0.0
  0
POLYLINE
  5
157
100
AcDbEntity
  8
VHH-035
100
AcDb2dPolyline
 66
     1
 10
0.0
 20
0.0
 30
0.0
 70
   128
  0
VERTEX
  5
158
100
AcDbEntity
  8
VHH-035
100
AcDbVertex
100
AcDb2dVertex
 10
1142.909106
 20
1315.408281
 30
0.0
 42
0.034471
 70
     2
 50
98.972631
  0
VERTEX
  5
159
100
AcDbEntity
  8
VHH-035
100
AcDbVertex
100
AcDb2dVertex
 10
1142.305723
 20
1317.392015
 30
0.0
 42
0.311147
  0
VERTEX
  5
15A
100
AcDbEntity
  8
VHH-035
100
AcDbVertex
100
AcDb2dVertex
 10
1141.836595
 20
1317.715244
 30
0.0
 42
0.311147
  0
SEQEND
  5
15B
100
AcDbEntity
  8
VHH-035
  0
ARC
  5
15C
100
AcDbEntity
  8
VHH-035
100
AcDbCircle
 10
1145.96164
 20
1315.420006
 30
0.0
 40
5.0
100
AcDbArc
 50
156.505134
 51
172.882917
  0
ARC
  5
15D
100
AcDbEntity
  8
VHH-035
100
AcDbCircle
 10
1141.836595
 20
1317.213187
 30
0.0
 40
0.502056
100
AcDbArc
 50
20.866436
 51
156.505134
  0
ARC
  5
15E
100
AcDbEntity
  8
VHH-035
100
AcDbCircle
 10
1153.9
 20
1314.428827
 30
0.0
 40
16.90794
100
AcDbArc
 50
159.564525
 51
233.466917
  0
LINE
  5
15F
100
AcDbEntity
  8
VHH-035
100
AcDbLine
 10
1138.068846
 20
1320.228827
 30
0.0
 11
1138.98826
 21
1320.228827
 31
0.0
  0
ARC
  5
160
100
AcDbEntity
  8
VHH-035
100
AcDbCircle
 10
1134.287625
 20
1368.066366
 30
0.0
 40
1.0
100
AcDbArc
 50
187.0
 51
227.445687
  0
ARC
  5
161
100
AcDbEntity
  8
VHH-035
100
AcDbCircle
 10
1153.9
 20
1364.428827
 30
0.0
 40
5.0
100
AcDbArc
 50
90.0
 51
270.0
  0
ARC
  5
162
100
AcDbEntity
  8
VHH-035
100
AcDbCircle
 10
1146.977921
 20
1360.032827
 30
0.0
 40
0.2
100
AcDbArc
 50
32.418376
 51
76.749556
  0
ARC
  5
163
100
AcDbEntity
  8
VHH-035
100
AcDbCircle
 10
1153.9
 20
1364.428827
 30
0.0
 40
8.0
100
AcDbArc
 50
212.418376
 51
270.0
  0
ARC
  5
164
100
AcDbEntity
  8
VHH-035
100
AcDbCircle
 10
1153.9
 20
1389.428827
 30
0.0
 40
30.0
100
AcDbArc
 50
227.445687
 51
256.749556
  0
LINE
  5
165
100
AcDbEntity
  8
VHH-035
100
AcDbLine
 10
1130.8
 20
1379.428827
 30
0.0
 11
1130.8
 21
1379.428827
 31
0.0
  0
LINE
  5
166
100
AcDbEntity
  8
035-DWG
100
AcDbLine
 10
1047.388195
 20
1483.281513
 30
0.0
 11
1045.4
 21
1483.281513
 31
0.0
  0
LINE
  5
167
100
AcDbEntity
  8
035-DWG
100
AcDbLine
 10
1047.396847
 20
1477.269555
 30
0.0
 11
1045.4
 21
1477.269555
 31
0.0
  0
LINE
  5
168
100
AcDbEntity
  8
035-DWG
100
AcDbLine
 10
1045.4
 20
1475.448399
 30
0.0
 11
1045.4
 21
1483.281513
 31
0.0
  0
ARC
  5
169
100
AcDbEntity
  8
035-DWG
100
AcDbCircle
 10
1041.9
 20
1475.448399
 30
0.0
 40
3.5
100
AcDbArc
 50
276.882429
 51
0.0
  0
LINE
  5
16A
100
AcDbEntity
  8
035-DWG
100
AcDbLine
 10
1129.516976
 20
1487.655838
 30
0.0
 11
1134.007097
 21
1483.785615
 31
0.0
  0
LINE
  5
16B
100
AcDbEntity
  8
035-DWG
100
AcDbLine
 10
1134.828688
 20
1497.512203
 30
0.0
 11
1140.530287
 21
1495.889989
 31
0.0
  0
ELLIPSE
  5
16C
100
AcDbEntity
  8
035-DWG
100
AcDbEllipse
 10
1132.990183
 20
1492.143541
 30
0.0
 11
2.704120171706139
 21
5.017741932081848
 31
0.0
210
0.0
220
0.0
230
1.0
 40
0.866025
 41
0.1883584114237521
 42
2.953234242166041
  0
ELLIPSE
  5
16D
100
AcDbEntity
  8
035-DWG
100
AcDbEllipse
 10
1138.272016
 20
1489.297098
 30
0.0
 11
3.320849333674287
 21
6.162139214837508
 31
0.0
210
0.0
220
0.0
230
1.0
 40
0.866025
 41
0.0
 42
3.141592653589793
  0
LINE
  5
16E
100
AcDbEntity
  8
025-DWG
100
AcDbLine
 10
1149.356053
 20
1483.32378
 30
0.0
 11
1149.675687
 21
1483.151526
 31
0.0
  0
LINE
  5
16F
100
AcDbEntity
  8
025-DWG
100
AcDbLine
 10
1139.002549
 20
1488.903406
 30
0.0
 11
1141.272869
 21
1487.679904
 31
0.0
  0
POLYLINE
  5
170
100
AcDbEntity
  8
025-DWG
100
AcDb2dPolyline
 66
     1
 10
0.0
 20
0.0
 30
0.0
 70
     4
 75
     6
  0
VERTEX
  5
171
100
AcDbEntity
  8
025-DWG
100
AcDbVertex
100
AcDb2dVertex
 10
1141.018269
 20
1479.865327
 30
0.0
 70
    16
  0
VERTEX
  5
172
100
AcDbEntity
  8
025-DWG
100
AcDbVertex
100
AcDb2dVertex
 10
1141.018269
 20
1479.865327
 30
0.0
 70
     8
  0
VERTEX
  5
173
100
AcDbEntity
  8
025-DWG
100
AcDbVertex
100
AcDb2dVertex
 10
1141.28536
 20
1479.905526
 30
0.0
 70
     8
  0
VERTEX
  5
174
100
AcDbEntity
  8
025-DWG
100
AcDbVertex
100
AcDb2dVertex
 10
1141.498597
 20
1479.94724
 30
0.0
 70
     8
  0
VERTEX
  5
175
100
AcDbEntity
  8
025-DWG
100
AcDbVertex
100
AcDb2dVertex
 10
1141.679417
 20
1480.002878
 30
0.0
 70
     8
  0
VERTEX
  5
176
100
AcDbEntity
  8
025-DWG
100
AcDbVertex
100
AcDb2dVertex
 10
1141.849256
 20
1480.084849
 30
0.0
 70
     8
  0
VERTEX
  5
177
100
AcDbEntity
  8
025-DWG
100
AcDbVertex
100
AcDb2dVertex
 10
1142.029552
 20
1480.205563
 30
0.0
 70
     8
  0
VERTEX
  5
178
100
AcDbEntity
  8
025-DWG
100
AcDbVertex
100
AcDb2dVertex
 10
1142.241741
 20
1480.377429
 30
0.0
 70
     8
  0
VERTEX
  5
179
100
AcDbEntity
  8
025-DWG
100
AcDbVertex
100
AcDb2dVertex
 10
1142.507259
 20
1480.612856
 30
0.0
 70
     8
  0
VERTEX
  5
17A
100
AcDbEntity
  8
025-DWG
100
AcDbVertex
100
AcDb2dVertex
 10
1142.847545
 20
1480.924253
 30
0.0
 70
     8
  0
VERTEX
  5
17B
100
AcDbEntity
  8
025-DWG
100
AcDbVertex
100
AcDb2dVertex
 10
1141.821373
 20
1479.981536
 30
0.0
 70
    16
  0
VERTEX
  5
17C
100
AcDbEntity
  8
025-DWG
100
AcDbVertex
100
AcDb2dVertex
 10
1142.847545
 20
1480.924253
 30
0.0
 70
    16
  0
SEQEND
  5
17D
100
AcDbEntity
  8
025-DWG
  0
POLYLINE
  5
17E
100
AcDbEntity
  8
025-DWG
100
AcDb2dPolyline
 66
     1
 10
0.0
 20
0.0
 30
0.0
 70
     4
 75
     6
  0
VERTEX
  5
17F
100
AcDbEntity
  8
025-DWG
100
AcDbVertex
100
AcDb2dVertex
 10
1147.659967
 20
1492.189605
 30
0.0
 70
    16
  0
VERTEX
  5
180
100
AcDbEntity
  8
025-DWG
100
AcDbVertex
100
AcDb2dVertex
 10
1147.659967
 20
1492.189605
 30
0.0
 70
     8
  0
VERTEX
  5
181
100
AcDbEntity
  8
025-DWG
100
AcDbVertex
100
AcDb2dVertex
 10
1147.773258
 20
1491.944413
 30
0.0
 70
     8
  0
VERTEX
  5
182
100
AcDbEntity
  8
025-DWG
100
AcDbVertex
100
AcDb2dVertex
 10
1147.855671
 20
1491.74337
 30
0.0
 70
     8
  0
VERTEX
  5
183
100
AcDbEntity
  8
025-DWG
100
AcDbVertex
100
AcDb2dVertex
 10
1147.908628
 20
1491.561747
 30
0.0
 70
     8
  0
VERTEX
  5
184
100
AcDbEntity
  8
025-DWG
100
AcDbVertex
100
AcDb2dVertex
 10
1147.933552
 20
1491.374815
 30
0.0
 70
     8
  0
VERTEX
  5
185
100
AcDbEntity
  8
025-DWG
100
AcDbVertex
100
AcDb2dVertex
 10
1147.931866
 20
1491.157847
 30
0.0
 70
     8
  0
VERTEX
  5
186
100
AcDbEntity
  8
025-DWG
100
AcDbVertex
100
AcDb2dVertex
 10
1147.904994
 20
1490.886112
 30
0.0
 70
     8
  0
VERTEX
  5
187
100
AcDbEntity
  8
025-DWG
100
AcDbVertex
100
AcDb2dVertex
 10
1147.854356
 20
1490.534883
 30
0.0
 70
     8
  0
VERTEX
  5
188
100
AcDbEntity
  8
025-DWG
100
AcDbVertex
100
AcDb2dVertex
 10
1147.781378
 20
1490.079431
 30
0.0
 70
     8
  0
VERTEX
  5
189
100
AcDbEntity
  8
025-DWG
100
AcDbVertex
100
AcDb2dVertex
 10
1148.004512
 20
1491.454915
 30
0.0
 70
    16
  0
VERTEX
  5
18A
100
AcDbEntity
  8
025-DWG
100
AcDbVertex
100
AcDb2dVertex
 10
1147.781378
 20
1490.079431
 30
0.0
 70
    16
  0
SEQEND
  5
18B
100
AcDbEntity
  8
025-DWG
  0
ELLIPSE
  5
18C
100
AcDbEntity
  8
025-DWG
100
AcDbEllipse
 10
1145.314461
 20
1485.501842
 30
0.0
 11
2.466916647872269
 21
4.57758913102204
 31
0.0
210
0.0
220
0.0
230
0.9999999999999998
 40
0.882908
 41
0.0
 42
6.283185307179586
  0
ELLIPSE
  5
18D
100
AcDbEntity
  8
035-DWG
100
AcDbEllipse
 10
1144.339118
 20
1486.027466
 30
0.0
 11
3.320849333674287
 21
6.162139214837508
 31
0.0
210
0.0
220
0.0
230
1.0
 40
0.866025
 41
0.0
 42
6.283185307179586
  0
LINE
  5
18E
100
AcDbEntity
  8
035-DWG
100
AcDbLine
 10
1141.018269
 20
1479.865327
 30
0.0
 11
1134.951167
 21
1483.134959
 31
0.0
  0
LINE
  5
18F
100
AcDbEntity
  8
035-DWG
100
AcDbLine
 10
1147.659967
 20
1492.189605
 30
0.0
 11
1141.592866
 21
1495.459238
 31
0.0
  0
LINE
  5
190
100
AcDbEntity
  8
025-DWG
  6
CONTINUOUS
100
AcDbLine
 10
865.820779
 20
1666.025704
 30
0.0
 11
865.820779
 21
1764.402504
 31
0.0
  0
ARC
  5
191
100
AcDbEntity
  8
035-DWG
100
AcDbCircle
 10
780.9
 20
1704.128827
 30
0.0
 40
49.3
100
AcDbArc
 50
70.835269
 51
262.025948
  0
ARC
  5
192
100
AcDbEntity
  8
025-DWG
100
AcDbCircle
 10
780.9
 20
1704.128827
 30
0.0
 40
82.269856
100
AcDbArc
 50
359.862931
 51
85.254751
  0
ARC
  5
193
100
AcDbEntity
  8
025-DWG
100
AcDbCircle
 10
780.9
 20
1704.128827
 30
0.0
 40
82.269856
100
AcDbArc
 50
94.745249
 51
228.274928
  0
LINE
  5
194
100
AcDbEntity
  8
025-DWG
  6
CONTINUOUS
100
AcDbLine
 10
695.979221
 20
1764.402504
 30
0.0
 11
695.979221
 21
1572.320775
 31
0.0
  0
LINE
  5
195
100
AcDbEntity
  8
035-DWG
  6
CONTINUOUS
100
AcDbLine
 10
867.899998
 20
1764.402504
 30
0.0
 11
867.899998
 21
1664.77873
 31
0.0
  0
LINE
  5
196
100
AcDbEntity
  8
035-DWG
  6
CONTINUOUS
100
AcDbLine
 10
693.900002
 20
1571.982932
 30
0.0
 11
693.900002
 21
1764.402504
 31
0.0
  0
ARC
  5
197
100
AcDbEntity
  8
025-DWG
100
AcDbCircle
 10
780.9
 20
1704.128827
 30
0.0
 40
82.269856
100
AcDbArc
 50
239.240228
 51
321.36372
  0
CIRCLE
  5
198
100
AcDbEntity
  8
025-DWG
100
AcDbCircle
 10
780.9
 20
1704.128827
 30
0.0
 40
33.0
  0
LINE
  5
199
100
AcDbEntity
  8
025-DWG
  6
CONTINUOUS
100
AcDbLine
 10
717.399997
 20
1565.981721
 30
0.0
 11
844.400003
 21
1565.981721
 31
0.0
  0
LINE
  5
19A
100
AcDbEntity
  8
035-DWG
  6
CONTINUOUS
100
AcDbLine
 10
717.399997
 20
1563.902497
 30
0.0
 11
844.400003
 21
1563.902497
 31
0.0
  0
POLYLINE
  5
19B
100
AcDbEntity
  8
025-DWG
  6
CONTINUOUS
100
AcDb2dPolyline
 66
     1
 10
0.0
 20
0.0
 30
0.0
 70
   128
  0
VERTEX
  5
19C
100
AcDbEntity
  8
025-DWG
100
AcDbVertex
100
AcDb2dVertex
 10
695.755629
 20
1570.141468
 30
0.0
  0
VERTEX
  5
19D
100
AcDbEntity
  8
025-DWG
100
AcDbVertex
100
AcDb2dVertex
 10
695.660187
 20
1570.088874
 30
0.0
  0
VERTEX
  5
19E
100
AcDbEntity
  8
025-DWG
100
AcDbVertex
100
AcDb2dVertex
 10
695.158405
 20
1569.813532
 30
0.0
  0
SEQEND
  5
19F
100
AcDbEntity
  8
025-DWG
  0
LINE
  5
1A0
100
AcDbEntity
  8
025-DWG
  6
CONTINUOUS
100
AcDbLine
 10
694.479739
 20
1572.320775
 30
0.0
 11
695.979221
 21
1572.320775
 31
0.0
  0
ARC
  5
1A1
100
AcDbEntity
  8
035-DWG
  6
CONTINUOUS
100
AcDbCircle
 10
717.4
 20
1608.702497
 30
0.0
 40
44.8
100
AcDbArc
 50
240.233659
 51
270.0
  0
LINE
  5
1A2
100
AcDbEntity
  8
035-DWG
100
AcDbLine
 10
680.9
 20
1563.578827
 30
0.0
 11
680.9
 21
1627.578827
 31
0.0
  0
LINE
  5
1A3
100
AcDbEntity
  8
025-DWG
100
AcDbLine
 10
686.9
 20
1627.578827
 30
0.0
 11
686.9
 21
1563.578827
 31
0.0
  0
LINE
  5
1A4
100
AcDbEntity
  8
025-DWG
100
AcDbLine
 10
680.9
 20
1563.578827
 30
0.0
 11
686.9
 21
1563.578827
 31
0.0
  0
LINE
  5
1A5
100
AcDbEntity
  8
025-DWG
  6
CONTINUOUS
100
AcDbLine
 10
693.900002
 20
1571.982932
 30
0.0
 11
694.479739
 21
1572.320775
 31
0.0
  0
POLYLINE
  5
1A6
100
AcDbEntity
  8
035-DWG
  6
CONTINUOUS
100
AcDb2dPolyline
 66
     1
 10
0.0
 20
0.0
 30
0.0
 70
   128
  0
VERTEX
  5
1A7
100
AcDbEntity
  8
035-DWG
100
AcDbVertex
100
AcDb2dVertex
 10
695.158405
 20
1569.813532
 30
0.0
  0
VERTEX
  5
1A8
100
AcDbEntity
  8
035-DWG
100
AcDbVertex
100
AcDb2dVertex
 10
694.816468
 20
1570.048792
 30
0.0
  0
VERTEX
  5
1A9
100
AcDbEntity
  8
035-DWG
100
AcDbVertex
100
AcDb2dVertex
 10
694.510257
 20
1570.346506
 30
0.0
  0
VERTEX
  5
1AA
100
AcDbEntity
  8
035-DWG
100
AcDbVertex
100
AcDb2dVertex
 10
694.265468
 20
1570.681688
 30
0.0
  0
VERTEX
  5
1AB
100
AcDbEntity
  8
035-DWG
100
AcDbVertex
100
AcDb2dVertex
 10
694.075061
 20
1571.063989
 30
0.0
  0
VERTEX
  5
1AC
100
AcDbEntity
  8
035-DWG
100
AcDbVertex
100
AcDb2dVertex
 10
693.945741
 20
1571.506938
 30
0.0
  0
VERTEX
  5
1AD
100
AcDbEntity
  8
035-DWG
100
AcDbVertex
100
AcDb2dVertex
 10
693.900002
 20
1571.982932
 30
0.0
  0
SEQEND
  5
1AE
100
AcDbEntity
  8
035-DWG
  0
LINE
  5
1AF
100
AcDbEntity
  8
035-DWG
100
AcDbLine
 10
686.9
 20
1633.578827
 30
0.0
 11
693.900002
 21
1633.578827
 31
0.0
  0
ARC
  5
1B0
100
AcDbEntity
  8
035-DWG
100
AcDbCircle
 10
686.9
 20
1627.578827
 30
0.0
 40
6.0
100
AcDbArc
 50
90.0
 51
180.0
  0
LINE
  5
1B1
100
AcDbEntity
  8
025-DWG
100
AcDbLine
 10
680.9
 20
1627.578827
 30
0.0
 11
686.9
 21
1627.578827
 31
0.0
  0
LINE
  5
1B2
100
AcDbEntity
  8
025-DWG
100
AcDbLine
 10
686.9
 20
1633.578827
 30
0.0
 11
686.9
 21
1627.578827
 31
0.0
  0
LINE
  5
1B3
100
AcDbEntity
  8
025-DWG
100
AcDbLine
 10
693.900002
 20
1627.578827
 30
0.0
 11
686.9
 21
1627.578827
 31
0.0
  0
LINE
  5
1B4
100
AcDbEntity
  8
025-DWG
  6
CONTINUOUS
100
AcDbLine
 10
717.399997
 20
1564.482235
 30
0.0
 11
717.399997
 21
1563.902497
 31
0.0
  0
LINE
  5
1B5
100
AcDbEntity
  8
025-DWG
  6
CONTINUOUS
100
AcDbLine
 10
717.399997
 20
1564.482235
 30
0.0
 11
717.399997
 21
1565.981721
 31
0.0
  0
POLYLINE
  5
1B6
100
AcDbEntity
  8
025-DWG
  6
CONTINUOUS
100
AcDb2dPolyline
 66
     1
 10
0.0
 20
0.0
 30
0.0
 70
   128
  0
VERTEX
  5
1B7
100
AcDbEntity
  8
025-DWG
100
AcDbVertex
100
AcDb2dVertex
 10
695.755629
 20
1570.141468
 30
0.0
  0
VERTEX
  5
1B8
100
AcDbEntity
  8
025-DWG
100
AcDbVertex
100
AcDb2dVertex
 10
695.772959
 20
1570.172335
 30
0.0
  0
VERTEX
  5
1B9
100
AcDbEntity
  8
025-DWG
100
AcDbVertex
100
AcDb2dVertex
 10
695.816917
 20
1570.250649
 30
0.0
  0
VERTEX
  5
1BA
100
AcDbEntity
  8
025-DWG
100
AcDbVertex
100
AcDb2dVertex
 10
695.885872
 20
1570.373499
 30
0.0
  0
VERTEX
  5
1BB
100
AcDbEntity
  8
025-DWG
100
AcDbVertex
100
AcDb2dVertex
 10
695.977261
 20
1570.53632
 30
0.0
  0
VERTEX
  5
1BC
100
AcDbEntity
  8
025-DWG
100
AcDbVertex
100
AcDb2dVertex
 10
696.087694
 20
1570.733061
 30
0.0
  0
VERTEX
  5
1BD
100
AcDbEntity
  8
025-DWG
100
AcDbVertex
100
AcDb2dVertex
 10
696.213057
 20
1570.95641
 30
0.0
  0
VERTEX
  5
1BE
100
AcDbEntity
  8
025-DWG
100
AcDbVertex
100
AcDb2dVertex
 10
696.348702
 20
1571.198068
 30
0.0
  0
VERTEX
  5
1BF
100
AcDbEntity
  8
025-DWG
100
AcDbVertex
100
AcDb2dVertex
 10
696.489578
 20
1571.449053
 30
0.0
  0
SEQEND
  5
1C0
100
AcDbEntity
  8
025-DWG
  0
POLYLINE
  5
1C1
100
AcDbEntity
  8
025-DWG
  6
CONTINUOUS
100
AcDb2dPolyline
 66
     1
 10
0.0
 20
0.0
 30
0.0
 70
   128
  0
VERTEX
  5
1C2
100
AcDbEntity
  8
025-DWG
100
AcDbVertex
100
AcDb2dVertex
 10
695.979221
 20
1572.320775
 30
0.0
  0
VERTEX
  5
1C3
100
AcDbEntity
  8
025-DWG
100
AcDbVertex
100
AcDb2dVertex
 10
696.035569
 20
1571.98988
 30
0.0
  0
VERTEX
  5
1C4
100
AcDbEntity
  8
025-DWG
100
AcDbVertex
100
AcDb2dVertex
 10
696.198275
 20
1571.69629
 30
0.0
  0
VERTEX
  5
1C5
100
AcDbEntity
  8
025-DWG
100
AcDbVertex
100
AcDb2dVertex
 10
696.448957
 20
1571.473133
 30
0.0
  0
VERTEX
  5
1C6
100
AcDbEntity
  8
025-DWG
100
AcDbVertex
100
AcDb2dVertex
 10
696.489578
 20
1571.449053
 30
0.0
  0
SEQEND
  5
1C7
100
AcDbEntity
  8
025-DWG
  0
ARC
  5
1C8
100
AcDbEntity
  8
025-DWG
  6
CONTINUOUS
100
AcDbCircle
 10
717.4
 20
1608.702497
 30
0.0
 40
42.720777
100
AcDbArc
 50
240.694432
 51
270.0
  0
ARC
  5
1C9
100
AcDbEntity
  8
025-DWG
  6
CONTINUOUS
100
AcDbCircle
 10
726.438255
 20
1629.902497
 30
0.0
 40
12.539793
100
AcDbArc
 50
104.878453
 51
351.481207
  0
ARC
  5
1CA
100
AcDbEntity
  8
035-DWG
  6
CONTINUOUS
100
AcDbCircle
 10
726.438255
 20
1629.902497
 30
0.0
 40
11.040307
100
AcDbArc
 50
104.878453
 51
351.481207
  0
POLYLINE
  5
1CB
100
AcDbEntity
  8
035-DWG
  6
CONTINUOUS
100
AcDb2dPolyline
 66
     1
 10
0.0
 20
0.0
 30
0.0
 70
   128
  0
VERTEX
  5
1CC
100
AcDbEntity
  8
035-DWG
100
AcDbVertex
100
AcDb2dVertex
 10
729.853701
 20
1640.358816
 30
0.0
  0
VERTEX
  5
1CD
100
AcDbEntity
  8
035-DWG
100
AcDbVertex
100
AcDb2dVertex
 10
728.269611
 20
1640.757437
 30
0.0
  0
VERTEX
  5
1CE
100
AcDbEntity
  8
035-DWG
100
AcDbVertex
100
AcDb2dVertex
 10
726.623405
 20
1640.920023
 30
0.0
  0
VERTEX
  5
1CF
100
AcDbEntity
  8
035-DWG
100
AcDbVertex
100
AcDb2dVertex
 10
725.51189
 20
1640.890996
 30
0.0
  0
VERTEX
  5
1D0
100
AcDbEntity
  8
035-DWG
100
AcDbVertex
100
AcDb2dVertex
 10
724.406828
 20
1640.750672
 30
0.0
  0
SEQEND
  5
1D1
100
AcDbEntity
  8
035-DWG
  0
POLYLINE
  5
1D2
100
AcDbEntity
  8
025-DWG
  6
CONTINUOUS
100
AcDb2dPolyline
 66
     1
 10
0.0
 20
0.0
 30
0.0
 70
   128
  0
VERTEX
  5
1D3
100
AcDbEntity
  8
025-DWG
100
AcDbVertex
100
AcDb2dVertex
 10
724.492584
 20
1642.552192
 30
0.0
  0
VERTEX
  5
1D4
100
AcDbEntity
  8
025-DWG
100
AcDbVertex
100
AcDb2dVertex
 10
725.494568
 20
1642.69049
 30
0.0
  0
VERTEX
  5
1D5
100
AcDbEntity
  8
025-DWG
100
AcDbVertex
100
AcDb2dVertex
 10
726.51634
 20
1642.747815
 30
0.0
  0
VERTEX
  5
1D6
100
AcDbEntity
  8
025-DWG
100
AcDbVertex
100
AcDb2dVertex
 10
727.566276
 20
1642.71986
 30
0.0
  0
VERTEX
  5
1D7
100
AcDbEntity
  8
025-DWG
100
AcDbVertex
100
AcDb2dVertex
 10
728.623379
 20
1642.602171
 30
0.0
  0
VERTEX
  5
1D8
100
AcDbEntity
  8
025-DWG
100
AcDbVertex
100
AcDb2dVertex
 10
729.640361
 20
1642.401735
 30
0.0
  0
VERTEX
  5
1D9
100
AcDbEntity
  8
025-DWG
100
AcDbVertex
100
AcDb2dVertex
 10
730.649192
 20
1642.114098
 30
0.0
  0
SEQEND
  5
1DA
100
AcDbEntity
  8
025-DWG
  0
POLYLINE
  5
1DB
100
AcDbEntity
  8
025-DWG
  6
CONTINUOUS
100
AcDb2dPolyline
 66
     1
 10
0.0
 20
0.0
 30
0.0
 70
   128
  0
VERTEX
  5
1DC
100
AcDbEntity
  8
025-DWG
100
AcDbVertex
100
AcDb2dVertex
 10
723.218423
 20
1642.02186
 30
0.0
  0
VERTEX
  5
1DD
100
AcDbEntity
  8
025-DWG
100
AcDbVertex
100
AcDb2dVertex
 10
723.53394
 20
1642.161156
 30
0.0
  0
VERTEX
  5
1DE
100
AcDbEntity
  8
025-DWG
100
AcDbVertex
100
AcDb2dVertex
 10
723.851447
 20
1642.296027
 30
0.0
  0
VERTEX
  5
1DF
100
AcDbEntity
  8
025-DWG
100
AcDbVertex
100
AcDb2dVertex
 10
724.173028
 20
1642.427231
 30
0.0
  0
VERTEX
  5
1E0
100
AcDbEntity
  8
025-DWG
100
AcDbVertex
100
AcDb2dVertex
 10
724.492584
 20
1642.552192
 30
0.0
  0
SEQEND
  5
1E1
100
AcDbEntity
  8
025-DWG
  0
POLYLINE
  5
1E2
100
AcDbEntity
  8
035-DWG
  6
CONTINUOUS
100
AcDb2dPolyline
 66
     1
 10
0.0
 20
0.0
 30
0.0
 70
   128
  0
VERTEX
  5
1E3
100
AcDbEntity
  8
035-DWG
100
AcDbVertex
100
AcDb2dVertex
 10
724.406828
 20
1640.750672
 30
0.0
  0
VERTEX
  5
1E4
100
AcDbEntity
  8
035-DWG
100
AcDbVertex
100
AcDb2dVertex
 10
724.014011
 20
1640.672396
 30
0.0
  0
VERTEX
  5
1E5
100
AcDbEntity
  8
035-DWG
100
AcDbVertex
100
AcDb2dVertex
 10
723.603439
 20
1640.572648
 30
0.0
  0
SEQEND
  5
1E6
100
AcDbEntity
  8
035-DWG
  0
POLYLINE
  5
1E7
100
AcDbEntity
  8
025-DWG
  6
CONTINUOUS
100
AcDb2dPolyline
 66
     1
 10
0.0
 20
0.0
 30
0.0
 70
   128
  0
VERTEX
  5
1E8
100
AcDbEntity
  8
025-DWG
100
AcDbVertex
100
AcDb2dVertex
 10
723.603439
 20
1640.572648
 30
0.0
  0
VERTEX
  5
1E9
100
AcDbEntity
  8
025-DWG
100
AcDbVertex
100
AcDb2dVertex
 10
723.594357
 20
1640.606861
 30
0.0
  0
VERTEX
  5
1EA
100
AcDbEntity
  8
025-DWG
100
AcDbVertex
100
AcDb2dVertex
 10
723.57129
 20
1640.69366
 30
0.0
  0
VERTEX
  5
1EB
100
AcDbEntity
  8
025-DWG
100
AcDbVertex
100
AcDb2dVertex
 10
723.535117
 20
1640.829812
 30
0.0
  0
VERTEX
  5
1EC
100
AcDbEntity
  8
025-DWG
100
AcDbVertex
100
AcDb2dVertex
 10
723.48718
 20
1641.010265
 30
0.0
  0
VERTEX
  5
1ED
100
AcDbEntity
  8
025-DWG
100
AcDbVertex
100
AcDb2dVertex
 10
723.429244
 20
1641.228329
 30
0.0
  0
VERTEX
  5
1EE
100
AcDbEntity
  8
025-DWG
100
AcDbVertex
100
AcDb2dVertex
 10
723.363478
 20
1641.475867
 30
0.0
  0
VERTEX
  5
1EF
100
AcDbEntity
  8
025-DWG
100
AcDbVertex
100
AcDb2dVertex
 10
723.292325
 20
1641.7437
 30
0.0
  0
VERTEX
  5
1F0
100
AcDbEntity
  8
025-DWG
100
AcDbVertex
100
AcDb2dVertex
 10
723.218423
 20
1642.02186
 30
0.0
  0
SEQEND
  5
1F1
100
AcDbEntity
  8
025-DWG
  0
POLYLINE
  5
1F2
100
AcDbEntity
  8
025-DWG
  6
CONTINUOUS
100
AcDb2dPolyline
 66
     1
 10
0.0
 20
0.0
 30
0.0
 70
   128
  0
VERTEX
  5
1F3
100
AcDbEntity
  8
025-DWG
100
AcDbVertex
100
AcDb2dVertex
 10
724.492584
 20
1642.552192
 30
0.0
  0
VERTEX
  5
1F4
100
AcDbEntity
  8
025-DWG
100
AcDbVertex
100
AcDb2dVertex
 10
724.55502
 20
1642.237688
 30
0.0
  0
VERTEX
  5
1F5
100
AcDbEntity
  8
025-DWG
100
AcDbVertex
100
AcDb2dVertex
 10
724.598002
 20
1641.922574
 30
0.0
  0
VERTEX
  5
1F6
100
AcDbEntity
  8
025-DWG
100
AcDbVertex
100
AcDb2dVertex
 10
724.619542
 20
1641.621332
 30
0.0
  0
VERTEX
  5
1F7
100
AcDbEntity
  8
025-DWG
100
AcDbVertex
100
AcDb2dVertex
 10
724.61867
 20
1641.347746
 30
0.0
  0
VERTEX
  5
1F8
100
AcDbEntity
  8
025-DWG
100
AcDbVertex
100
AcDb2dVertex
 10
724.595417
 20
1641.114394
 30
0.0
  0
VERTEX
  5
1F9
100
AcDbEntity
  8
025-DWG
100
AcDbVertex
100
AcDb2dVertex
 10
724.550847
 20
1640.931974
 30
0.0
  0
VERTEX
  5
1FA
100
AcDbEntity
  8
025-DWG
100
AcDbVertex
100
AcDb2dVertex
 10
724.487011
 20
1640.808861
 30
0.0
  0
VERTEX
  5
1FB
100
AcDbEntity
  8
025-DWG
100
AcDbVertex
100
AcDb2dVertex
 10
724.406828
 20
1640.750672
 30
0.0
  0
SEQEND
  5
1FC
100
AcDbEntity
  8
025-DWG
  0
POLYLINE
  5
1FD
100
AcDbEntity
  8
025-DWG
  6
CONTINUOUS
100
AcDb2dPolyline
 66
     1
 10
0.0
 20
0.0
 30
0.0
 70
   128
  0
VERTEX
  5
1FE
100
AcDbEntity
  8
025-DWG
100
AcDbVertex
100
AcDb2dVertex
 10
738.108267
 20
1635.440181
 30
0.0
  0
VERTEX
  5
1FF
100
AcDbEntity
  8
025-DWG
100
AcDbVertex
100
AcDb2dVertex
 10
737.798714
 20
1635.307129
 30
0.0
  0
VERTEX
  5
200
100
AcDbEntity
  8
025-DWG
100
AcDbVertex
100
AcDb2dVertex
 10
737.490103
 20
1635.162066
 30
0.0
  0
VERTEX
  5
201
100
AcDbEntity
  8
025-DWG
100
AcDbVertex
100
AcDb2dVertex
 10
737.198446
 20
1635.012518
 30
0.0
  0
VERTEX
  5
202
100
AcDbEntity
  8
025-DWG
100
AcDbVertex
100
AcDb2dVertex
 10
736.938868
 20
1634.866263
 30
0.0
  0
VERTEX
  5
203
100
AcDbEntity
  8
025-DWG
100
AcDbVertex
100
AcDb2dVertex
 10
736.724839
 20
1634.730871
 30
0.0
  0
VERTEX
  5
204
100
AcDbEntity
  8
025-DWG
100
AcDbVertex
100
AcDb2dVertex
 10
736.567449
 20
1634.61336
 30
0.0
  0
VERTEX
  5
205
100
AcDbEntity
  8
025-DWG
100
AcDbVertex
100
AcDb2dVertex
 10
736.474872
 20
1634.519841
 30
0.0
  0
VERTEX
  5
206
100
AcDbEntity
  8
025-DWG
100
AcDbVertex
100
AcDb2dVertex
 10
736.451906
 20
1634.45517
 30
0.0
  0
SEQEND
  5
207
100
AcDbEntity
  8
025-DWG
  0
POLYLINE
  5
208
100
AcDbEntity
  8
025-DWG
  6
CONTINUOUS
100
AcDb2dPolyline
 66
     1
 10
0.0
 20
0.0
 30
0.0
 70
   128
  0
VERTEX
  5
209
100
AcDbEntity
  8
025-DWG
100
AcDbVertex
100
AcDb2dVertex
 10
730.649192
 20
1642.114098
 30
0.0
  0
VERTEX
  5
20A
100
AcDbEntity
  8
025-DWG
100
AcDbVertex
100
AcDb2dVertex
 10
730.551232
 20
1641.791712
 30
0.0
  0
VERTEX
  5
20B
100
AcDbEntity
  8
025-DWG
100
AcDbVertex
100
AcDb2dVertex
 10
730.441247
 20
1641.468938
 30
0.0
  0
VERTEX
  5
20C
100
AcDbEntity
  8
025-DWG
100
AcDbVertex
100
AcDb2dVertex
 10
730.324936
 20
1641.16251
 30
0.0
  0
VERTEX
  5
20D
100
AcDbEntity
  8
025-DWG
100
AcDbVertex
100
AcDb2dVertex
 10
730.208327
 20
1640.888329
 30
0.0
  0
VERTEX
  5
20E
100
AcDbEntity
  8
025-DWG
100
AcDbVertex
100
AcDb2dVertex
 10
730.097477
 20
1640.660609
 30
0.0
  0
VERTEX
  5
20F
100
AcDbEntity
  8
025-DWG
100
AcDbVertex
100
AcDb2dVertex
 10
729.998131
 20
1640.491183
 30
0.0
  0
VERTEX
  5
210
100
AcDbEntity
  8
025-DWG
100
AcDbVertex
100
AcDb2dVertex
 10
729.915437
 20
1640.388812
 30
0.0
  0
VERTEX
  5
211
100
AcDbEntity
  8
025-DWG
100
AcDbVertex
100
AcDb2dVertex
 10
729.853701
 20
1640.358816
 30
0.0
  0
SEQEND
  5
212
100
AcDbEntity
  8
025-DWG
  0
POLYLINE
  5
213
100
AcDbEntity
  8
025-DWG
  6
CONTINUOUS
100
AcDb2dPolyline
 66
     1
 10
0.0
 20
0.0
 30
0.0
 70
   128
  0
VERTEX
  5
214
100
AcDbEntity
  8
025-DWG
100
AcDbVertex
100
AcDb2dVertex
 10
730.649192
 20
1642.114098
 30
0.0
  0
VERTEX
  5
215
100
AcDbEntity
  8
025-DWG
100
AcDbVertex
100
AcDb2dVertex
 10
732.030008
 20
1641.551743
 30
0.0
  0
VERTEX
  5
216
100
AcDbEntity
  8
025-DWG
100
AcDbVertex
100
AcDb2dVertex
 10
733.359103
 20
1640.803407
 30
0.0
  0
VERTEX
  5
217
100
AcDbEntity
  8
025-DWG
100
AcDbVertex
100
AcDb2dVertex
 10
735.035155
 20
1639.525245
 30
0.0
  0
VERTEX
  5
218
100
AcDbEntity
  8
025-DWG
100
AcDbVertex
100
AcDb2dVertex
 10
736.531962
 20
1637.955601
 30
0.0
  0
VERTEX
  5
219
100
AcDbEntity
  8
025-DWG
100
AcDbVertex
100
AcDb2dVertex
 10
737.393551
 20
1636.754776
 30
0.0
  0
VERTEX
  5
21A
100
AcDbEntity
  8
025-DWG
100
AcDbVertex
100
AcDb2dVertex
 10
738.108267
 20
1635.440181
 30
0.0
  0
SEQEND
  5
21B
100
AcDbEntity
  8
025-DWG
  0
ARC
  5
21C
100
AcDbEntity
  8
035-DWG
  6
CONTINUOUS
100
AcDbCircle
 10
726.438255
 20
1629.902497
 30
0.0
 40
11.0
100
AcDbArc
 50
24.448718
 51
71.910942
  0
POLYLINE
  5
21D
100
AcDbEntity
  8
025-DWG
  6
CONTINUOUS
100
AcDb2dPolyline
 66
     1
 10
0.0
 20
0.0
 30
0.0
 70
   128
  0
VERTEX
  5
21E
100
AcDbEntity
  8
025-DWG
100
AcDbVertex
100
AcDb2dVertex
 10
737.356756
 20
1628.26706
 30
0.0
  0
VERTEX
  5
21F
100
AcDbEntity
  8
025-DWG
100
AcDbVertex
100
AcDb2dVertex
 10
737.391763
 20
1628.261815
 30
0.0
  0
VERTEX
  5
220
100
AcDbEntity
  8
025-DWG
100
AcDbVertex
100
AcDb2dVertex
 10
737.480581
 20
1628.248508
 30
0.0
  0
VERTEX
  5
221
100
AcDbEntity
  8
025-DWG
100
AcDbVertex
100
AcDb2dVertex
 10
737.619907
 20
1628.227632
 30
0.0
  0
VERTEX
  5
222
100
AcDbEntity
  8
025-DWG
100
AcDbVertex
100
AcDb2dVertex
 10
737.804562
 20
1628.199975
 30
0.0
  0
VERTEX
  5
223
100
AcDbEntity
  8
025-DWG
100
AcDbVertex
100
AcDb2dVertex
 10
738.027689
 20
1628.166552
 30
0.0
  0
VERTEX
  5
224
100
AcDbEntity
  8
025-DWG
100
AcDbVertex
100
AcDb2dVertex
 10
738.28099
 20
1628.128613
 30
0.0
  0
VERTEX
  5
225
100
AcDbEntity
  8
025-DWG
100
AcDbVertex
100
AcDb2dVertex
 10
738.555056
 20
1628.087561
 30
0.0
  0
VERTEX
  5
226
100
AcDbEntity
  8
025-DWG
100
AcDbVertex
100
AcDb2dVertex
 10
738.839701
 20
1628.044928
 30
0.0
  0
SEQEND
  5
227
100
AcDbEntity
  8
025-DWG
  0
POLYLINE
  5
228
100
AcDbEntity
  8
025-DWG
  6
CONTINUOUS
100
AcDb2dPolyline
 66
     1
 10
0.0
 20
0.0
 30
0.0
 70
   128
  0
VERTEX
  5
229
100
AcDbEntity
  8
025-DWG
100
AcDbVertex
100
AcDb2dVertex
 10
739.225619
 20
1629.369999
 30
0.0
  0
VERTEX
  5
22A
100
AcDbEntity
  8
025-DWG
100
AcDbVertex
100
AcDb2dVertex
 10
739.139647
 20
1629.048805
 30
0.0
  0
VERTEX
  5
22B
100
AcDbEntity
  8
025-DWG
100
AcDbVertex
100
AcDb2dVertex
 10
739.046902
 20
1628.721069
 30
0.0
  0
VERTEX
  5
22C
100
AcDbEntity
  8
025-DWG
100
AcDbVertex
100
AcDb2dVertex
 10
738.946401
 20
1628.384437
 30
0.0
  0
VERTEX
  5
22D
100
AcDbEntity
  8
025-DWG
100
AcDbVertex
100
AcDb2dVertex
 10
738.839701
 20
1628.044928
 30
0.0
  0
SEQEND
  5
22E
100
AcDbEntity
  8
025-DWG
  0
POLYLINE
  5
22F
100
AcDbEntity
  8
025-DWG
  6
CONTINUOUS
100
AcDb2dPolyline
 66
     1
 10
0.0
 20
0.0
 30
0.0
 70
   128
  0
VERTEX
  5
230
100
AcDbEntity
  8
025-DWG
100
AcDbVertex
100
AcDb2dVertex
 10
737.444699
 20
1629.085223
 30
0.0
  0
VERTEX
  5
231
100
AcDbEntity
  8
025-DWG
100
AcDbVertex
100
AcDb2dVertex
 10
737.493631
 20
1629.171352
 30
0.0
  0
VERTEX
  5
232
100
AcDbEntity
  8
025-DWG
100
AcDbVertex
100
AcDb2dVertex
 10
737.608925
 20
1629.248436
 30
0.0
  0
VERTEX
  5
233
100
AcDbEntity
  8
025-DWG
100
AcDbVertex
100
AcDb2dVertex
 10
737.785288
 20
1629.312928
 30
0.0
  0
VERTEX
  5
234
100
AcDbEntity
  8
025-DWG
100
AcDbVertex
100
AcDb2dVertex
 10
738.014628
 20
1629.361893
 30
0.0
  0
VERTEX
  5
235
100
AcDbEntity
  8
025-DWG
100
AcDbVertex
100
AcDb2dVertex
 10
738.286425
 20
1629.393066
 30
0.0
  0
VERTEX
  5
236
100
AcDbEntity
  8
025-DWG
100
AcDbVertex
100
AcDb2dVertex
 10
738.588211
 20
1629.405017
 30
0.0
  0
VERTEX
  5
237
100
AcDbEntity
  8
025-DWG
100
AcDbVertex
100
AcDb2dVertex
 10
738.906134
 20
1629.397209
 30
0.0
  0
VERTEX
  5
238
100
AcDbEntity
  8
025-DWG
100
AcDbVertex
100
AcDb2dVertex
 10
739.225619
 20
1629.369999
 30
0.0
  0
SEQEND
  5
239
100
AcDbEntity
  8
025-DWG
  0
POLYLINE
  5
23A
100
AcDbEntity
  8
035-DWG
  6
CONTINUOUS
100
AcDb2dPolyline
 66
     1
 10
0.0
 20
0.0
 30
0.0
 70
   128
  0
VERTEX
  5
23B
100
AcDbEntity
  8
035-DWG
100
AcDbVertex
100
AcDb2dVertex
 10
737.356756
 20
1628.26706
 30
0.0
  0
VERTEX
  5
23C
100
AcDbEntity
  8
035-DWG
100
AcDbVertex
100
AcDb2dVertex
 10
737.385091
 20
1628.47064
 30
0.0
  0
VERTEX
  5
23D
100
AcDbEntity
  8
035-DWG
100
AcDbVertex
100
AcDb2dVertex
 10
737.409197
 20
1628.67486
 30
0.0
  0
VERTEX
  5
23E
100
AcDbEntity
  8
035-DWG
100
AcDbVertex
100
AcDb2dVertex
 10
737.429198
 20
1628.881167
 30
0.0
  0
VERTEX
  5
23F
100
AcDbEntity
  8
035-DWG
100
AcDbVertex
100
AcDb2dVertex
 10
737.444699
 20
1629.085223
 30
0.0
  0
SEQEND
  5
240
100
AcDbEntity
  8
035-DWG
  0
POLYLINE
  5
241
100
AcDbEntity
  8
035-DWG
  6
CONTINUOUS
100
AcDb2dPolyline
 66
     1
 10
0.0
 20
0.0
 30
0.0
 70
   128
  0
VERTEX
  5
242
100
AcDbEntity
  8
035-DWG
100
AcDbVertex
100
AcDb2dVertex
 10
737.444699
 20
1629.085223
 30
0.0
  0
VERTEX
  5
243
100
AcDbEntity
  8
035-DWG
100
AcDbVertex
100
AcDb2dVertex
 10
737.417251
 20
1630.877788
 30
0.0
  0
VERTEX
  5
244
100
AcDbEntity
  8
035-DWG
100
AcDbVertex
100
AcDb2dVertex
 10
737.082649
 20
1632.714759
 30
0.0
  0
VERTEX
  5
245
100
AcDbEntity
  8
035-DWG
100
AcDbVertex
100
AcDb2dVertex
 10
736.805708
 20
1633.592258
 30
0.0
  0
VERTEX
  5
246
100
AcDbEntity
  8
035-DWG
100
AcDbVertex
100
AcDb2dVertex
 10
736.451906
 20
1634.45517
 30
0.0
  0
SEQEND
  5
247
100
AcDbEntity
  8
035-DWG
  0
POLYLINE
  5
248
100
AcDbEntity
  8
025-DWG
  6
CONTINUOUS
100
AcDb2dPolyline
 66
     1
 10
0.0
 20
0.0
 30
0.0
 70
   128
  0
VERTEX
  5
249
100
AcDbEntity
  8
025-DWG
100
AcDbVertex
100
AcDb2dVertex
 10
738.108267
 20
1635.440181
 30
0.0
  0
VERTEX
  5
24A
100
AcDbEntity
  8
025-DWG
100
AcDbVertex
100
AcDb2dVertex
 10
738.474846
 20
1634.554292
 30
0.0
  0
VERTEX
  5
24B
100
AcDbEntity
  8
025-DWG
100
AcDbVertex
100
AcDb2dVertex
 10
738.773261
 20
1633.64103
 30
0.0
  0
VERTEX
  5
24C
100
AcDbEntity
  8
025-DWG
100
AcDbVertex
100
AcDb2dVertex
 10
739.003715
 20
1632.693837
 30
0.0
  0
VERTEX
  5
24D
100
AcDbEntity
  8
025-DWG
100
AcDbVertex
100
AcDb2dVertex
 10
739.160102
 20
1631.730254
 30
0.0
  0
VERTEX
  5
24E
100
AcDbEntity
  8
025-DWG
100
AcDbVertex
100
AcDb2dVertex
 10
739.248459
 20
1630.553315
 30
0.0
  0
VERTEX
  5
24F
100
AcDbEntity
  8
025-DWG
100
AcDbVertex
100
AcDb2dVertex
 10
739.225619
 20
1629.369999
 30
0.0
  0
SEQEND
  5
250
100
AcDbEntity
  8
025-DWG
  0
LINE
  5
251
100
AcDbEntity
  8
035-DWG
100
AcDbLine
 10
880.9
 20
1563.578827
 30
0.0
 11
880.9
 21
1627.578827
 31
0.0
  0
LINE
  5
252
100
AcDbEntity
  8
025-DWG
100
AcDbLine
 10
874.9
 20
1627.578827
 30
0.0
 11
874.9
 21
1563.578827
 31
0.0
  0
LINE
  5
253
100
AcDbEntity
  8
035-DWG
  6
CONTINUOUS
100
AcDbLine
 10
867.899998
 20
1639.125576
 30
0.0
 11
867.899998
 21
1571.982932
 31
0.0
  0
LINE
  5
254
100
AcDbEntity
  8
025-DWG
  6
CONTINUOUS
100
AcDbLine
 10
865.820779
 20
1572.320775
 30
0.0
 11
865.820779
 21
1640.37255
 31
0.0
  0
ARC
  5
255
100
AcDbEntity
  8
025-DWG
  6
CONTINUOUS
100
AcDbCircle
 10
844.4
 20
1608.702497
 30
0.0
 40
42.720777
100
AcDbArc
 50
270.0
 51
299.305568
  0
ARC
  5
256
100
AcDbEntity
  8
035-DWG
  6
CONTINUOUS
100
AcDbCircle
 10
844.4
 20
1608.702497
 30
0.0
 40
44.8
100
AcDbArc
 50
270.0
 51
299.766341
  0
LINE
  5
257
100
AcDbEntity
  8
025-DWG
  6
CONTINUOUS
100
AcDbLine
 10
844.400003
 20
1564.482235
 30
0.0
 11
844.400003
 21
1563.902497
 31
0.0
  0
LINE
  5
258
100
AcDbEntity
  8
025-DWG
  6
CONTINUOUS
100
AcDbLine
 10
844.400003
 20
1564.482235
 30
0.0
 11
844.400003
 21
1565.981721
 31
0.0
  0
ARC
  5
259
100
AcDbEntity
  8
050-DWG
100
AcDbCircle
 10
864.7
 20
1570.275784
 30
0.0
 40
1.2
100
AcDbArc
 50
298.682646
 51
0.0
  0
LINE
  5
25B
100
AcDbEntity
  8
025-DWG
100
AcDbLine
 10
880.9
 20
1563.578827
 30
0.0
 11
874.9
 21
1563.578827
 31
0.0
  0
LINE
  5
25C
100
AcDbEntity
  8
025-DWG
  6
CONTINUOUS
100
AcDbLine
 10
867.320261
 20
1572.320775
 30
0.0
 11
867.899998
 21
1571.982932
 31
0.0
  0
POLYLINE
  5
25D
100
AcDbEntity
  8
025-DWG
  6
CONTINUOUS
100
AcDb2dPolyline
 66
     1
 10
0.0
 20
0.0
 30
0.0
 70
   128
  0
VERTEX
  5
25E
100
AcDbEntity
  8
025-DWG
100
AcDbVertex
100
AcDb2dVertex
 10
866.641595
 20
1569.813532
 30
0.0
  0
VERTEX
  5
25F
100
AcDbEntity
  8
025-DWG
100
AcDbVertex
100
AcDb2dVertex
 10
866.506821
 20
1569.887295
 30
0.0
  0
VERTEX
  5
260
100
AcDbEntity
  8
025-DWG
100
AcDbVertex
100
AcDb2dVertex
 10
866.044371
 20
1570.141468
 30
0.0
  0
SEQEND
  5
261
100
AcDbEntity
  8
025-DWG
  0
POLYLINE
  5
262
100
AcDbEntity
  8
025-DWG
  6
CONTINUOUS
100
AcDb2dPolyline
 66
     1
 10
0.0
 20
0.0
 30
0.0
 70
   128
  0
VERTEX
  5
263
100
AcDbEntity
  8
025-DWG
100
AcDbVertex
100
AcDb2dVertex
 10
866.044371
 20
1570.141468
 30
0.0
  0
VERTEX
  5
264
100
AcDbEntity
  8
025-DWG
100
AcDbVertex
100
AcDb2dVertex
 10
866.027041
 20
1570.172335
 30
0.0
  0
VERTEX
  5
265
100
AcDbEntity
  8
025-DWG
100
AcDbVertex
100
AcDb2dVertex
 10
865.983083
 20
1570.250649
 30
0.0
  0
VERTEX
  5
266
100
AcDbEntity
  8
025-DWG
100
AcDbVertex
100
AcDb2dVertex
 10
865.914128
 20
1570.373499
 30
0.0
  0
VERTEX
  5
267
100
AcDbEntity
  8
025-DWG
100
AcDbVertex
100
AcDb2dVertex
 10
865.822739
 20
1570.53632
 30
0.0
  0
VERTEX
  5
268
100
AcDbEntity
  8
025-DWG
100
AcDbVertex
100
AcDb2dVertex
 10
865.712306
 20
1570.733061
 30
0.0
  0
VERTEX
  5
269
100
AcDbEntity
  8
025-DWG
100
AcDbVertex
100
AcDb2dVertex
 10
865.586943
 20
1570.95641
 30
0.0
  0
VERTEX
  5
26A
100
AcDbEntity
  8
025-DWG
100
AcDbVertex
100
AcDb2dVertex
 10
865.451298
 20
1571.198068
 30
0.0
  0
VERTEX
  5
26B
100
AcDbEntity
  8
025-DWG
100
AcDbVertex
100
AcDb2dVertex
 10
865.310422
 20
1571.449053
 30
0.0
  0
SEQEND
  5
26C
100
AcDbEntity
  8
025-DWG
  0
LINE
  5
26D
100
AcDbEntity
  8
025-DWG
  6
CONTINUOUS
100
AcDbLine
 10
867.320261
 20
1572.320775
 30
0.0
 11
865.820779
 21
1572.320775
 31
0.0
  0
POLYLINE
  5
26E
100
AcDbEntity
  8
025-DWG
  6
CONTINUOUS
100
AcDb2dPolyline
 66
     1
 10
0.0
 20
0.0
 30
0.0
 70
   128
  0
VERTEX
  5
26F
100
AcDbEntity
  8
025-DWG
100
AcDbVertex
100
AcDb2dVertex
 10
865.310422
 20
1571.449053
 30
0.0
  0
VERTEX
  5
270
100
AcDbEntity
  8
025-DWG
100
AcDbVertex
100
AcDb2dVertex
 10
865.571386
 20
1571.66015
 30
0.0
  0
VERTEX
  5
271
100
AcDbEntity
  8
025-DWG
100
AcDbVertex
100
AcDb2dVertex
 10
865.747764
 20
1571.945734
 30
0.0
  0
VERTEX
  5
272
100
AcDbEntity
  8
025-DWG
100
AcDbVertex
100
AcDb2dVertex
 10
865.819662
 20
1572.273565
 30
0.0
  0
VERTEX
  5
273
100
AcDbEntity
  8
025-DWG
100
AcDbVertex
100
AcDb2dVertex
 10
865.820779
 20
1572.320775
 30
0.0
  0
SEQEND
  5
274
100
AcDbEntity
  8
025-DWG
  0
POLYLINE
  5
275
100
AcDbEntity
  8
025-DWG
  6
CONTINUOUS
100
AcDb2dPolyline
 66
     1
 10
0.0
 20
0.0
 30
0.0
 70
   128
  0
VERTEX
  5
276
100
AcDbEntity
  8
025-DWG
100
AcDbVertex
100
AcDb2dVertex
 10
867.899998
 20
1571.982932
 30
0.0
  0
VERTEX
  5
277
100
AcDbEntity
  8
025-DWG
100
AcDbVertex
100
AcDb2dVertex
 10
867.865539
 20
1571.569313
 30
0.0
  0
VERTEX
  5
278
100
AcDbEntity
  8
025-DWG
100
AcDbVertex
100
AcDb2dVertex
 10
867.759137
 20
1571.155694
 30
0.0
  0
VERTEX
  5
279
100
AcDbEntity
  8
025-DWG
100
AcDbVertex
100
AcDb2dVertex
 10
867.589704
 20
1570.776798
 30
0.0
  0
VERTEX
  5
27A
100
AcDbEntity
  8
025-DWG
100
AcDbVertex
100
AcDb2dVertex
 10
867.352373
 20
1570.421719
 30
0.0
  0
VERTEX
  5
27B
100
AcDbEntity
  8
025-DWG
100
AcDbVertex
100
AcDb2dVertex
 10
867.032073
 20
1570.089552
 30
0.0
  0
VERTEX
  5
27C
100
AcDbEntity
  8
025-DWG
100
AcDbVertex
100
AcDb2dVertex
 10
866.641595
 20
1569.813532
 30
0.0
  0
SEQEND
  5
27D
100
AcDbEntity
  8
025-DWG
  0
LINE
  5
27E
100
AcDbEntity
  8
035-DWG
100
AcDbLine
 10
874.9
 20
1633.578827
 30
0.0
 11
867.899998
 21
1633.578827
 31
0.0
  0
LINE
  5
27F
100
AcDbEntity
  8
025-DWG
100
AcDbLine
 10
867.899998
 20
1627.578827
 30
0.0
 11
874.9
 21
1627.578827
 31
0.0
  0
LINE
  5
280
100
AcDbEntity
  8
025-DWG
100
AcDbLine
 10
874.9
 20
1633.578827
 30
0.0
 11
874.9
 21
1627.578827
 31
0.0
  0
LINE
  5
281
100
AcDbEntity
  8
025-DWG
100
AcDbLine
 10
880.9
 20
1627.578827
 30
0.0
 11
874.9
 21
1627.578827
 31
0.0
  0
ARC
  5
282
100
AcDbEntity
  8
035-DWG
100
AcDbCircle
 10
874.9
 20
1627.578827
 30
0.0
 40
6.0
100
AcDbArc
 50
0.0
 51
90.0
  0
ARC
  5
283
100
AcDbEntity
  8
035-DWG
100
AcDbCircle
 10
780.9
 20
1704.128827
 30
0.0
 40
49.3
100
AcDbArc
 50
305.312696
 51
29.088765
  0
ARC
  5
284
100
AcDbEntity
  8
025-DWG
100
AcDbCircle
 10
780.9
 20
1704.128827
 30
0.0
 40
82.269856
100
AcDbArc
 50
336.731359
 51
342.399654
  0
LINE
  5
285
100
AcDbEntity
  8
035-DWG
100
AcDbLine
 10
695.9
 20
1854.128827
 30
0.0
 11
865.9
 21
1854.128827
 31
0.0
  0
LINE
  5
286
100
AcDbEntity
  8
035-DWG
  6
CONTINUOUS
100
AcDbLine
 10
859.819568
 20
1787.9025
 30
0.0
 11
701.980432
 21
1787.9025
 31
0.0
  0
POLYLINE
  5
287
100
AcDbEntity
  8
025-DWG
  6
CONTINUOUS
100
AcDb2dPolyline
 66
     1
 10
0.0
 20
0.0
 30
0.0
 70
   128
  0
VERTEX
  5
288
100
AcDbEntity
  8
025-DWG
100
AcDbVertex
100
AcDb2dVertex
 10
830.427865
 20
1786.230887
 30
0.0
  0
VERTEX
  5
289
100
AcDbEntity
  8
025-DWG
100
AcDbVertex
100
AcDb2dVertex
 10
822.872697
 20
1786.197717
 30
0.0
  0
VERTEX
  5
28A
100
AcDbEntity
  8
025-DWG
100
AcDbVertex
100
AcDb2dVertex
 10
815.285312
 20
1786.170001
 30
0.0
  0
VERTEX
  5
28B
100
AcDbEntity
  8
025-DWG
100
AcDbVertex
100
AcDb2dVertex
 10
807.67154
 20
1786.147828
 30
0.0
  0
VERTEX
  5
28C
100
AcDbEntity
  8
025-DWG
100
AcDbVertex
100
AcDb2dVertex
 10
800.037219
 20
1786.131199
 30
0.0
  0
VERTEX
  5
28D
100
AcDbEntity
  8
025-DWG
100
AcDbVertex
100
AcDb2dVertex
 10
792.388209
 20
1786.120082
 30
0.0
  0
VERTEX
  5
28E
100
AcDbEntity
  8
025-DWG
100
AcDbVertex
100
AcDb2dVertex
 10
784.730383
 20
1786.114539
 30
0.0
  0
VERTEX
  5
28F
100
AcDbEntity
  8
025-DWG
100
AcDbVertex
100
AcDb2dVertex
 10
777.069617
 20
1786.114539
 30
0.0
  0
VERTEX
  5
290
100
AcDbEntity
  8
025-DWG
100
AcDbVertex
100
AcDb2dVertex
 10
769.411791
 20
1786.120082
 30
0.0
  0
VERTEX
  5
291
100
AcDbEntity
  8
025-DWG
100
AcDbVertex
100
AcDb2dVertex
 10
761.762781
 20
1786.131199
 30
0.0
  0
VERTEX
  5
292
100
AcDbEntity
  8
025-DWG
100
AcDbVertex
100
AcDb2dVertex
 10
754.12846
 20
1786.147828
 30
0.0
  0
VERTEX
  5
293
100
AcDbEntity
  8
025-DWG
100
AcDbVertex
100
AcDb2dVertex
 10
746.514688
 20
1786.170001
 30
0.0
  0
VERTEX
  5
294
100
AcDbEntity
  8
025-DWG
100
AcDbVertex
100
AcDb2dVertex
 10
738.927303
 20
1786.197717
 30
0.0
  0
VERTEX
  5
295
100
AcDbEntity
  8
025-DWG
100
AcDbVertex
100
AcDb2dVertex
 10
731.372135
 20
1786.230887
 30
0.0
  0
SEQEND
  5
296
100
AcDbEntity
  8
025-DWG
  0
LINE
  5
297
100
AcDbEntity
  8
035-DWG
100
AcDbLine
 10
695.9
 20
1854.128827
 30
0.0
 11
695.9
 21
1777.638811
 31
0.0
  0
LINE
  5
298
100
AcDbEntity
  8
035-DWG
100
AcDbLine
 10
717.9
 20
1854.128827
 30
0.0
 11
717.9
 21
1787.9025
 31
0.0
  0
LINE
  5
299
100
AcDbEntity
  8
025-DWG
  6
CONTINUOUS
100
AcDbLine
 10
694.479739
 20
1764.402504
 30
0.0
 11
695.979221
 21
1764.402504
 31
0.0
  0
ARC
  5
29A
100
AcDbEntity
  8
025-DWG
  6
CONTINUOUS
100
AcDbCircle
 10
738.7
 20
1764.402497
 30
0.0
 40
42.720777
100
AcDbArc
 50
150.694432
 51
180.0
  0
ARC
  5
29B
100
AcDbEntity
  8
035-DWG
  6
CONTINUOUS
100
AcDbCircle
 10
738.7
 20
1764.402497
 30
0.0
 40
44.8
100
AcDbArc
 50
150.233659
 51
180.0
  0
LINE
  5
29C
100
AcDbEntity
  8
025-DWG
  6
CONTINUOUS
100
AcDbLine
 10
694.479739
 20
1764.402504
 30
0.0
 11
693.900002
 21
1764.402504
 31
0.0
  0
LINE
  5
29D
100
AcDbEntity
  8
NZB
100
AcDbLine
 10
746.0
 20
1787.9025
 30
0.0
 11
746.0
 21
1799.307086
 31
0.0
  0
LINE
  5
29F
100
AcDbEntity
  8
NZB
100
AcDbLine
 10
716.0
 20
1787.9025
 30
0.0
 11
716.0
 21
1799.307086
 31
0.0
  0
POLYLINE
  5
2A0
100
AcDbEntity
  8
025-DWG
  6
CONTINUOUS
100
AcDb2dPolyline
 66
     1
 10
0.0
 20
0.0
 30
0.0
 70
   128
  0
VERTEX
  5
2A1
100
AcDbEntity
  8
025-DWG
100
AcDbVertex
100
AcDb2dVertex
 10
731.372135
 20
1786.230887
 30
0.0
  0
VERTEX
  5
2A2
100
AcDbEntity
  8
025-DWG
100
AcDbVertex
100
AcDb2dVertex
 10
730.612079
 20
1786.131646
 30
0.0
  0
VERTEX
  5
2A3
100
AcDbEntity
  8
025-DWG
100
AcDbVertex
100
AcDb2dVertex
 10
729.848447
 20
1786.030646
 30
0.0
  0
VERTEX
  5
2A4
100
AcDbEntity
  8
025-DWG
100
AcDbVertex
100
AcDb2dVertex
 10
729.080281
 20
1785.927708
 30
0.0
  0
VERTEX
  5
2A5
100
AcDbEntity
  8
025-DWG
100
AcDbVertex
100
AcDb2dVertex
 10
728.310367
 20
1785.823281
 30
0.0
  0
SEQEND
  5
2A6
100
AcDbEntity
  8
025-DWG
  0
POLYLINE
  5
2A7
100
AcDbEntity
  8
025-DWG
  6
CONTINUOUS
100
AcDb2dPolyline
 66
     1
 10
0.0
 20
0.0
 30
0.0
 70
   128
  0
VERTEX
  5
2A8
100
AcDbEntity
  8
025-DWG
100
AcDbVertex
100
AcDb2dVertex
 10
700.138969
 20
1786.046858
 30
0.0
  0
VERTEX
  5
2A9
100
AcDbEntity
  8
025-DWG
100
AcDbVertex
100
AcDb2dVertex
 10
700.086375
 20
1786.142315
 30
0.0
  0
VERTEX
  5
2AA
100
AcDbEntity
  8
025-DWG
100
AcDbVertex
100
AcDb2dVertex
 10
699.811032
 20
1786.644097
 30
0.0
  0
SEQEND
  5
2AB
100
AcDbEntity
  8
025-DWG
  0
POLYLINE
  5
2AC
100
AcDbEntity
  8
025-DWG
  6
CONTINUOUS
100
AcDb2dPolyline
 66
     1
 10
0.0
 20
0.0
 30
0.0
 70
   128
  0
VERTEX
  5
2AD
100
AcDbEntity
  8
025-DWG
100
AcDbVertex
100
AcDb2dVertex
 10
700.138969
 20
1786.046858
 30
0.0
  0
VERTEX
  5
2AE
100
AcDbEntity
  8
025-DWG
100
AcDbVertex
100
AcDb2dVertex
 10
700.169837
 20
1786.029543
 30
0.0
  0
VERTEX
  5
2AF
100
AcDbEntity
  8
025-DWG
100
AcDbVertex
100
AcDb2dVertex
 10
700.24815
 20
1785.985584
 30
0.0
  0
VERTEX
  5
2B0
100
AcDbEntity
  8
025-DWG
100
AcDbVertex
100
AcDb2dVertex
 10
700.371003
 20
1785.916622
 30
0.0
  0
VERTEX
  5
2B1
100
AcDbEntity
  8
025-DWG
100
AcDbVertex
100
AcDb2dVertex
 10
700.53382
 20
1785.825248
 30
0.0
  0
VERTEX
  5
2B2
100
AcDbEntity
  8
025-DWG
100
AcDbVertex
100
AcDb2dVertex
 10
700.73056
 20
1785.714801
 30
0.0
  0
VERTEX
  5
2B3
100
AcDbEntity
  8
025-DWG
100
AcDbVertex
100
AcDb2dVertex
 10
700.953914
 20
1785.589452
 30
0.0
  0
VERTEX
  5
2B4
100
AcDbEntity
  8
025-DWG
100
AcDbVertex
100
AcDb2dVertex
 10
701.195573
 20
1785.453792
 30
0.0
  0
VERTEX
  5
2B5
100
AcDbEntity
  8
025-DWG
100
AcDbVertex
100
AcDb2dVertex
 10
701.446553
 20
1785.312916
 30
0.0
  0
SEQEND
  5
2B6
100
AcDbEntity
  8
025-DWG
  0
POLYLINE
  5
2B7
100
AcDbEntity
  8
025-DWG
  6
CONTINUOUS
100
AcDb2dPolyline
 66
     1
 10
0.0
 20
0.0
 30
0.0
 70
   128
  0
VERTEX
  5
2B8
100
AcDbEntity
  8
025-DWG
100
AcDbVertex
100
AcDb2dVertex
 10
702.318279
 20
1785.823281
 30
0.0
  0
VERTEX
  5
2B9
100
AcDbEntity
  8
025-DWG
100
AcDbVertex
100
AcDb2dVertex
 10
701.987384
 20
1785.766925
 30
0.0
  0
VERTEX
  5
2BA
100
AcDbEntity
  8
025-DWG
100
AcDbVertex
100
AcDb2dVertex
 10
701.693793
 20
1785.604234
 30
0.0
  0
VERTEX
  5
2BB
100
AcDbEntity
  8
025-DWG
100
AcDbVertex
100
AcDb2dVertex
 10
701.470634
 20
1785.353537
 30
0.0
  0
VERTEX
  5
2BC
100
AcDbEntity
  8
025-DWG
100
AcDbVertex
100
AcDb2dVertex
 10
701.446553
 20
1785.312916
 30
0.0
  0
SEQEND
  5
2BD
100
AcDbEntity
  8
025-DWG
  0
LINE
  5
2BE
100
AcDbEntity
  8
025-DWG
  6
CONTINUOUS
100
AcDbLine
 10
702.318279
 20
1785.823281
 30
0.0
 11
702.318279
 21
1787.322755
 31
0.0
  0
LINE
  5
2BF
100
AcDbEntity
  8
025-DWG
  6
CONTINUOUS
100
AcDbLine
 10
701.980432
 20
1787.9025
 30
0.0
 11
702.318279
 21
1787.322755
 31
0.0
  0
POLYLINE
  5
2C0
100
AcDbEntity
  8
035-DWG
  6
CONTINUOUS
100
AcDb2dPolyline
 66
     1
 10
0.0
 20
0.0
 30
0.0
 70
   128
  0
VERTEX
  5
2C1
100
AcDbEntity
  8
035-DWG
100
AcDbVertex
100
AcDb2dVertex
 10
699.811032
 20
1786.644097
 30
0.0
  0
VERTEX
  5
2C2
100
AcDbEntity
  8
035-DWG
100
AcDbVertex
100
AcDb2dVertex
 10
700.046291
 20
1786.986019
 30
0.0
  0
VERTEX
  5
2C3
100
AcDbEntity
  8
035-DWG
100
AcDbVertex
100
AcDb2dVertex
 10
700.344009
 20
1787.292237
 30
0.0
  0
VERTEX
  5
2C4
100
AcDbEntity
  8
035-DWG
100
AcDbVertex
100
AcDb2dVertex
 10
700.679188
 20
1787.537034
 30
0.0
  0
VERTEX
  5
2C5
100
AcDbEntity
  8
035-DWG
100
AcDbVertex
100
AcDb2dVertex
 10
701.061493
 20
1787.727441
 30
0.0
  0
VERTEX
  5
2C6
100
AcDbEntity
  8
035-DWG
100
AcDbVertex
100
AcDb2dVertex
 10
701.504437
 20
1787.856753
 30
0.0
  0
VERTEX
  5
2C7
100
AcDbEntity
  8
035-DWG
100
AcDbVertex
100
AcDb2dVertex
 10
701.980432
 20
1787.9025
 30
0.0
  0
SEQEND
  5
2C8
100
AcDbEntity
  8
035-DWG
  0
LINE
  5
2C9
100
AcDbEntity
  8
025-DWG
  6
CONTINUOUS
100
AcDbLine
 10
728.310367
 20
1785.823281
 30
0.0
 11
702.318279
 21
1785.823281
 31
0.0
  0
LINE
  5
2CA
100
AcDbEntity
  8
NZB
100
AcDbLine
 10
716.0
 20
1799.307086
 30
0.0
 11
746.0
 21
1799.307086
 31
0.0
  0
LINE
  5
2CB
100
AcDbEntity
  8
035-DWG
100
AcDbLine
 10
865.9
 20
1777.638811
 30
0.0
 11
865.9
 21
1854.128827
 31
0.0
  0
LINE
  5
2CC
100
AcDbEntity
  8
035-DWG
100
AcDbLine
 10
843.9
 20
1854.128827
 30
0.0
 11
843.9
 21
1787.9025
 31
0.0
  0
LINE
  5
2CD
100
AcDbEntity
  8
NZB
100
AcDbLine
 10
801.0
 20
1799.307086
 30
0.0
 11
831.0
 21
1799.307086
 31
0.0
  0
LINE
  5
2CE
100
AcDbEntity
  8
NZB
100
AcDbLine
 10
802.5
 20
1787.9025
 30
0.0
 11
802.5
 21
1799.307086
 31
0.0
  0
LINE
  5
2CF
100
AcDbEntity
  8
NZB
100
AcDbLine
 10
801.0
 20
1787.9025
 30
0.0
 11
801.0
 21
1799.307086
 31
0.0
  0
LINE
  5
2D0
100
AcDbEntity
  8
NZB
100
AcDbLine
 10
829.5
 20
1787.9025
 30
0.0
 11
829.5
 21
1799.307086
 31
0.0
  0
LINE
  5
2D1
100
AcDbEntity
  8
NZB
100
AcDbLine
 10
831.0
 20
1787.9025
 30
0.0
 11
831.0
 21
1799.307086
 31
0.0
  0
POLYLINE
  5
2D2
100
AcDbEntity
  8
025-DWG
  6
CONTINUOUS
100
AcDb2dPolyline
 66
     1
 10
0.0
 20
0.0
 30
0.0
 70
   128
  0
VERTEX
  5
2D3
100
AcDbEntity
  8
025-DWG
100
AcDbVertex
100
AcDb2dVertex
 10
860.353447
 20
1785.312916
 30
0.0
  0
VERTEX
  5
2D4
100
AcDbEntity
  8
025-DWG
100
AcDbVertex
100
AcDb2dVertex
 10
860.142349
 20
1785.573895
 30
0.0
  0
VERTEX
  5
2D5
100
AcDbEntity
  8
025-DWG
100
AcDbVertex
100
AcDb2dVertex
 10
859.856761
 20
1785.750265
 30
0.0
  0
VERTEX
  5
2D6
100
AcDbEntity
  8
025-DWG
100
AcDbVertex
100
AcDb2dVertex
 10
859.528936
 20
1785.822148
 30
0.0
  0
VERTEX
  5
2D7
100
AcDbEntity
  8
025-DWG
100
AcDbVertex
100
AcDb2dVertex
 10
859.481721
 20
1785.823281
 30
0.0
  0
SEQEND
  5
2D8
100
AcDbEntity
  8
025-DWG
  0
LINE
  5
2D9
100
AcDbEntity
  8
025-DWG
  6
CONTINUOUS
100
AcDbLine
 10
859.481721
 20
1787.322755
 30
0.0
 11
859.819568
 21
1787.9025
 31
0.0
  0
LINE
  5
2DA
100
AcDbEntity
  8
025-DWG
  6
CONTINUOUS
100
AcDbLine
 10
859.481721
 20
1785.823281
 30
0.0
 11
859.481721
 21
1787.322755
 31
0.0
  0
POLYLINE
  5
2DB
100
AcDbEntity
  8
025-DWG
  6
CONTINUOUS
100
AcDb2dPolyline
 66
     1
 10
0.0
 20
0.0
 30
0.0
 70
   128
  0
VERTEX
  5
2DC
100
AcDbEntity
  8
025-DWG
100
AcDbVertex
100
AcDb2dVertex
 10
833.489633
 20
1785.823281
 30
0.0
  0
VERTEX
  5
2DD
100
AcDbEntity
  8
025-DWG
100
AcDbVertex
100
AcDb2dVertex
 10
832.72445
 20
1785.927082
 30
0.0
  0
VERTEX
  5
2DE
100
AcDbEntity
  8
025-DWG
100
AcDbVertex
100
AcDb2dVertex
 10
831.959097
 20
1786.029632
 30
0.0
  0
VERTEX
  5
2DF
100
AcDbEntity
  8
025-DWG
100
AcDbVertex
100
AcDb2dVertex
 10
831.192622
 20
1786.13105
 30
0.0
  0
VERTEX
  5
2E0
100
AcDbEntity
  8
025-DWG
100
AcDbVertex
100
AcDb2dVertex
 10
830.427865
 20
1786.230887
 30
0.0
  0
SEQEND
  5
2E1
100
AcDbEntity
  8
025-DWG
  0
LINE
  5
2E2
100
AcDbEntity
  8
025-DWG
  6
CONTINUOUS
100
AcDbLine
 10
859.481721
 20
1785.823281
 30
0.0
 11
833.489633
 21
1785.823281
 31
0.0
  0
POLYLINE
  5
2E3
100
AcDbEntity
  8
025-DWG
  6
CONTINUOUS
100
AcDb2dPolyline
 66
     1
 10
0.0
 20
0.0
 30
0.0
 70
   128
  0
VERTEX
  5
2E4
100
AcDbEntity
  8
025-DWG
100
AcDbVertex
100
AcDb2dVertex
 10
861.988968
 20
1786.644097
 30
0.0
  0
VERTEX
  5
2E5
100
AcDbEntity
  8
025-DWG
100
AcDbVertex
100
AcDb2dVertex
 10
861.9152
 20
1786.50933
 30
0.0
  0
VERTEX
  5
2E6
100
AcDbEntity
  8
025-DWG
100
AcDbVertex
100
AcDb2dVertex
 10
861.661031
 20
1786.046858
 30
0.0
  0
SEQEND
  5
2E7
100
AcDbEntity
  8
025-DWG
  0
POLYLINE
  5
2E8
100
AcDbEntity
  8
025-DWG
  6
CONTINUOUS
100
AcDb2dPolyline
 66
     1
 10
0.0
 20
0.0
 30
0.0
 70
   128
  0
VERTEX
  5
2E9
100
AcDbEntity
  8
025-DWG
100
AcDbVertex
100
AcDb2dVertex
 10
860.353447
 20
1785.312916
 30
0.0
  0
VERTEX
  5
2EA
100
AcDbEntity
  8
025-DWG
100
AcDbVertex
100
AcDb2dVertex
 10
860.604427
 20
1785.453792
 30
0.0
  0
VERTEX
  5
2EB
100
AcDbEntity
  8
025-DWG
100
AcDbVertex
100
AcDb2dVertex
 10
860.846086
 20
1785.589452
 30
0.0
  0
VERTEX
  5
2EC
100
AcDbEntity
  8
025-DWG
100
AcDbVertex
100
AcDb2dVertex
 10
861.06944
 20
1785.714801
 30
0.0
  0
VERTEX
  5
2ED
100
AcDbEntity
  8
025-DWG
100
AcDbVertex
100
AcDb2dVertex
 10
861.26618
 20
1785.825248
 30
0.0
  0
VERTEX
  5
2EE
100
AcDbEntity
  8
025-DWG
100
AcDbVertex
100
AcDb2dVertex
 10
861.428997
 20
1785.916622
 30
0.0
  0
VERTEX
  5
2EF
100
AcDbEntity
  8
025-DWG
100
AcDbVertex
100
AcDb2dVertex
 10
861.55185
 20
1785.985584
 30
0.0
  0
VERTEX
  5
2F0
100
AcDbEntity
  8
025-DWG
100
AcDbVertex
100
AcDb2dVertex
 10
861.630163
 20
1786.029543
 30
0.0
  0
VERTEX
  5
2F1
100
AcDbEntity
  8
025-DWG
100
AcDbVertex
100
AcDb2dVertex
 10
861.661031
 20
1786.046858
 30
0.0
  0
SEQEND
  5
2F2
100
AcDbEntity
  8
025-DWG
  0
POLYLINE
  5
2F3
100
AcDbEntity
  8
035-DWG
  6
CONTINUOUS
100
AcDb2dPolyline
 66
     1
 10
0.0
 20
0.0
 30
0.0
 70
   128
  0
VERTEX
  5
2F4
100
AcDbEntity
  8
035-DWG
100
AcDbVertex
100
AcDb2dVertex
 10
859.819568
 20
1787.9025
 30
0.0
  0
VERTEX
  5
2F5
100
AcDbEntity
  8
035-DWG
100
AcDbVertex
100
AcDb2dVertex
 10
860.233187
 20
1787.868048
 30
0.0
  0
VERTEX
  5
2F6
100
AcDbEntity
  8
035-DWG
100
AcDbVertex
100
AcDb2dVertex
 10
860.646806
 20
1787.761624
 30
0.0
  0
VERTEX
  5
2F7
100
AcDbEntity
  8
035-DWG
100
AcDbVertex
100
AcDb2dVertex
 10
861.025698
 20
1787.592198
 30
0.0
  0
VERTEX
  5
2F8
100
AcDbEntity
  8
035-DWG
100
AcDbVertex
100
AcDb2dVertex
 10
861.380777
 20
1787.354882
 30
0.0
  0
VERTEX
  5
2F9
100
AcDbEntity
  8
035-DWG
100
AcDbVertex
100
AcDb2dVertex
 10
861.712947
 20
1787.034567
 30
0.0
  0
VERTEX
  5
2FA
100
AcDbEntity
  8
035-DWG
100
AcDbVertex
100
AcDb2dVertex
 10
861.988968
 20
1786.644097
 30
0.0
  0
SEQEND
  5
2FB
100
AcDbEntity
  8
035-DWG
  0
LINE
  5
2FC
100
AcDbEntity
  8
025-DWG
  6
CONTINUOUS
100
AcDbLine
 10
867.320261
 20
1764.402504
 30
0.0
 11
867.899998
 21
1764.402504
 31
0.0
  0
LINE
  5
2FD
100
AcDbEntity
  8
025-DWG
  6
CONTINUOUS
100
AcDbLine
 10
865.820779
 20
1764.402504
 30
0.0
 11
867.320261
 21
1764.402504
 31
0.0
  0
ARC
  5
2FE
100
AcDbEntity
  8
025-DWG
  6
CONTINUOUS
100
AcDbCircle
 10
823.1
 20
1764.402497
 30
0.0
 40
42.720777
100
AcDbArc
 50
0.0
 51
29.305568
  0
ARC
  5
2FF
100
AcDbEntity
  8
035-DWG
  6
CONTINUOUS
100
AcDbCircle
 10
823.1
 20
1764.402497
 30
0.0
 40
44.8
100
AcDbArc
 50
0.0
 51
29.766341
  0
LINE
  5
300
100
AcDbEntity
  8
VHH-035
100
AcDbLine
 10
1174.404739
 20
1358.292126
 30
0.0
 11
1176.619415
 21
1376.329208
 31
0.0
  0
LINE
  5
301
100
AcDbEntity
  8
VHH-035
100
AcDbLine
 10
1174.504921
 20
1367.944497
 30
0.0
 11
1175.505345
 21
1376.092297
 31
0.0
  0
ARC
  5
302
100
AcDbEntity
  8
VHH-035
100
AcDbCircle
 10
1162.9
 20
1282.961026
 30
0.0
 40
6.0
100
AcDbArc
 50
298.273714
 51
25.988622
  0
LINE
  5
303
100
AcDbEntity
  8
VHH-035
100
AcDbLine
 10
1168.9
 20
1279.145627
 30
0.0
 11
1168.9
 21
1282.961026
 31
0.0
  0
ARC
  5
304
100
AcDbEntity
  8
VHH-035
100
AcDbCircle
 10
1162.9
 20
1279.145627
 30
0.0
 40
6.0
100
AcDbArc
 50
298.273714
 51
0.0
  0
LINE
  5
305
100
AcDbEntity
  8
VHH-035
100
AcDbLine
 10
1169.731154
 20
1320.228827
 30
0.0
 11
1173.637424
 21
1352.04284
 31
0.0
  0
ARC
  5
306
100
AcDbEntity
  8
VHH-035
100
AcDbCircle
 10
1161.83836
 20
1315.420006
 30
0.0
 40
5.0
100
AcDbArc
 50
7.117083
 51
23.494866
  0
POLYLINE
  5
307
100
AcDbEntity
  8
VHH-035
100
AcDb2dPolyline
 66
     1
 10
0.0
 20
0.0
 30
0.0
 70
   128
  0
VERTEX
  5
308
100
AcDbEntity
  8
VHH-035
100
AcDbVertex
100
AcDb2dVertex
 10
1164.890894
 20
1315.408281
 30
0.0
 42
-0.034471
 70
     2
 50
81.027369
  0
VERTEX
  5
309
100
AcDbEntity
  8
VHH-035
100
AcDbVertex
100
AcDb2dVertex
 10
1165.494277
 20
1317.392015
 30
0.0
 42
-0.311147
  0
VERTEX
  5
30A
100
AcDbEntity
  8
VHH-035
100
AcDbVertex
100
AcDb2dVertex
 10
1165.963405
 20
1317.715244
 30
0.0
 42
-0.311147
  0
SEQEND
  5
30B
100
AcDbEntity
  8
VHH-035
  0
ARC
  5
30C
100
AcDbEntity
  8
VHH-035
100
AcDbCircle
 10
1153.9
 20
1314.428827
 30
0.0
 40
13.0
100
AcDbArc
 50
319.243535
 51
46.95092
  0
ARC
  5
30D
100
AcDbEntity
  8
VHH-035
100
AcDbCircle
 10
1153.9
 20
1314.428827
 30
0.0
 40
16.90794
100
AcDbArc
 50
306.533083
 51
20.435475
  0
ARC
  5
30E
100
AcDbEntity
  8
VHH-035
100
AcDbCircle
 10
1208.742935
 20
1305.308852
 30
0.0
 40
45.0
100
AcDbArc
 50
167.030534
 51
205.988622
  0
LINE
  5
30F
100
AcDbEntity
  8
VHH-035
100
AcDbLine
 10
1169.731154
 20
1320.228827
 30
0.0
 11
1168.81174
 21
1320.228827
 31
0.0
  0
ARC
  5
310
100
AcDbEntity
  8
VHH-035
100
AcDbCircle
 10
1165.963405
 20
1317.213187
 30
0.0
 40
0.502056
100
AcDbArc
 50
23.494866
 51
159.133564
  0
ARC
  5
311
100
AcDbEntity
  8
VHH-035
100
AcDbCircle
 10
1160.822079
 20
1360.032827
 30
0.0
 40
0.2
100
AcDbArc
 50
103.250444
 51
147.581624
  0
ARC
  5
312
100
AcDbEntity
  8
VHH-035
100
AcDbCircle
 10
1173.512375
 20
1368.066366
 30
0.0
 40
1.0
100
AcDbArc
 50
312.554313
 51
353.0
  0
ARC
  5
313
100
AcDbEntity
  8
VHH-035
100
AcDbCircle
 10
1153.9
 20
1389.428827
 30
0.0
 40
30.0
100
AcDbArc
 50
283.250444
 51
312.554313
  0
LINE
  5
314
100
AcDbEntity
  8
035-DWG
100
AcDbLine
 10
1242.263717
 20
1471.428827
 30
0.0
 11
1308.795608
 21
1471.428827
 31
0.0
  0
LINE
  5
315
100
AcDbEntity
  8
035-DWG
100
AcDbLine
 10
1242.263717
 20
1489.428827
 30
0.0
 11
1308.795608
 21
1489.428827
 31
0.0
  0
LINE
  5
316
100
AcDbEntity
  8
VHH-035
100
AcDbLine
 10
1177.0
 20
1379.428827
 30
0.0
 11
1177.0
 21
1379.428827
 31
0.0
  0
ELLIPSE
  5
317
100
AcDbEntity
  8
035-DWG
100
AcDbEllipse
 10
1242.263717
 20
1480.428827
 30
0.0
 11
0.0
 21
9.0
 31
0.0
210
0.0
220
0.0
230
1.0
 40
0.098079
 41
0.0
 42
3.141592653589793
  0
LINE
  5
318
100
AcDbEntity
  8
035-DWG
100
AcDbLine
 10
1250.619772
 20
1489.428827
 30
0.0
 11
1250.619772
 21
1471.428827
 31
0.0
  0
ELLIPSE
  5
319
100
AcDbEntity
  8
035-DWG
100
AcDbEllipse
 10
1308.795608
 20
1480.428827
 30
0.0
 11
0.0
 21
9.0
 31
0.0
210
0.0
220
0.0
230
-1.0
 40
0.098079
 41
0.0
 42
3.141592653589793
  0
ENDSEC
  0
SECTION
  2
OBJECTS
  0
DICTIONARY
  5
1A
100
AcDbDictionary
  3
ACAD_GROUP
350
18
  3
ACAD_MLINESTYLE
350
19
  0
DICTIONARY
  5
18
102
{ACAD_REACTORS
330
1A
102
}
100
AcDbDictionary
  0
DICTIONARY
  5
19
102
{ACAD_REACTORS
330
1A
102
}
100
AcDbDictionary
  3
STANDARD
350
1D
  0
MLINESTYLE
  5
1D
102
{ACAD_REACTORS
330
19
102
}
100
AcDbMlineStyle
  2
STANDARD
 70
     0
  3

 62
     0
 51
90.0
 52
90.0
 71
     2
 49
0.5
 62
   256
  6
BYLAYER
 49
-0.5
 62
   256
  6
BYLAYER
  0
ENDSEC
  0
EOF
